ISO-10303-21;
HEADER;
FILE_DESCRIPTION(('FreeCAD Model'),'2;1');
FILE_NAME('Open CASCADE Shape Model','2022-12-02T13:12:38',('Author'),(
    ''),'Open CASCADE STEP processor 7.4','FreeCAD','Unknown');
FILE_SCHEMA(('AUTOMOTIVE_DESIGN { 1 0 10303 214 1 1 1 1 }'));
ENDSEC;
DATA;
#1 = APPLICATION_PROTOCOL_DEFINITION('international standard',
  'automotive_design',2000,#2);
#2 = APPLICATION_CONTEXT(
  'core data for automotive mechanical design processes');
#3 = SHAPE_DEFINITION_REPRESENTATION(#4,#10);
#4 = PRODUCT_DEFINITION_SHAPE('','',#5);
#5 = PRODUCT_DEFINITION('design','',#6,#9);
#6 = PRODUCT_DEFINITION_FORMATION('','',#7);
#7 = PRODUCT('Body','Body','',(#8));
#8 = PRODUCT_CONTEXT('',#2,'mechanical');
#9 = PRODUCT_DEFINITION_CONTEXT('part definition',#2,'design');
#10 = ADVANCED_BREP_SHAPE_REPRESENTATION('',(#11,#15),#365);
#11 = AXIS2_PLACEMENT_3D('',#12,#13,#14);
#12 = CARTESIAN_POINT('',(0.,0.,0.));
#13 = DIRECTION('',(0.,0.,1.));
#14 = DIRECTION('',(1.,0.,-0.));
#15 = MANIFOLD_SOLID_BREP('',#16);
#16 = CLOSED_SHELL('',(#17,#73,#104,#128,#152,#193,#234,#251,#286,#319,
    #336,#353));
#17 = ADVANCED_FACE('',(#18),#68,.F.);
#18 = FACE_BOUND('',#19,.F.);
#19 = EDGE_LOOP('',(#20,#30,#38,#46,#54,#62));
#20 = ORIENTED_EDGE('',*,*,#21,.F.);
#21 = EDGE_CURVE('',#22,#24,#26,.T.);
#22 = VERTEX_POINT('',#23);
#23 = CARTESIAN_POINT('',(-1.6,1.224646799147E-16,0.25));
#24 = VERTEX_POINT('',#25);
#25 = CARTESIAN_POINT('',(-1.6,1.224646799147E-16,0.75));
#26 = LINE('',#27,#28);
#27 = CARTESIAN_POINT('',(-1.6,1.224646799147E-16,0.));
#28 = VECTOR('',#29,1.);
#29 = DIRECTION('',(0.,0.,1.));
#30 = ORIENTED_EDGE('',*,*,#31,.T.);
#31 = EDGE_CURVE('',#22,#32,#34,.T.);
#32 = VERTEX_POINT('',#33);
#33 = CARTESIAN_POINT('',(-1.35,1.222980050564E-16,-8.326672684689E-17)
  );
#34 = LINE('',#35,#36);
#35 = CARTESIAN_POINT('',(-1.325,1.224646799147E-16,-2.5E-02));
#36 = VECTOR('',#37,1.);
#37 = DIRECTION('',(0.707106781187,0.,-0.707106781187));
#38 = ORIENTED_EDGE('',*,*,#39,.F.);
#39 = EDGE_CURVE('',#40,#32,#42,.T.);
#40 = VERTEX_POINT('',#41);
#41 = CARTESIAN_POINT('',(-1.,1.224646799147E-16,0.));
#42 = LINE('',#43,#44);
#43 = CARTESIAN_POINT('',(-1.,1.224646799147E-16,0.));
#44 = VECTOR('',#45,1.);
#45 = DIRECTION('',(-1.,0.,0.));
#46 = ORIENTED_EDGE('',*,*,#47,.T.);
#47 = EDGE_CURVE('',#40,#48,#50,.T.);
#48 = VERTEX_POINT('',#49);
#49 = CARTESIAN_POINT('',(-1.,1.224646799147E-16,1.));
#50 = LINE('',#51,#52);
#51 = CARTESIAN_POINT('',(-1.,1.224646799147E-16,0.));
#52 = VECTOR('',#53,1.);
#53 = DIRECTION('',(0.,0.,1.));
#54 = ORIENTED_EDGE('',*,*,#55,.T.);
#55 = EDGE_CURVE('',#48,#56,#58,.T.);
#56 = VERTEX_POINT('',#57);
#57 = CARTESIAN_POINT('',(-1.35,1.222980050564E-16,1.));
#58 = LINE('',#59,#60);
#59 = CARTESIAN_POINT('',(-1.,1.224646799147E-16,1.));
#60 = VECTOR('',#61,1.);
#61 = DIRECTION('',(-1.,0.,0.));
#62 = ORIENTED_EDGE('',*,*,#63,.F.);
#63 = EDGE_CURVE('',#24,#56,#64,.T.);
#64 = LINE('',#65,#66);
#65 = CARTESIAN_POINT('',(-1.575,1.224646799147E-16,0.775));
#66 = VECTOR('',#67,1.);
#67 = DIRECTION('',(0.707106781187,0.,0.707106781187));
#68 = PLANE('',#69);
#69 = AXIS2_PLACEMENT_3D('',#70,#71,#72);
#70 = CARTESIAN_POINT('',(-1.,1.224646799147E-16,0.));
#71 = DIRECTION('',(0.,-1.,0.));
#72 = DIRECTION('',(-1.,0.,0.));
#73 = ADVANCED_FACE('',(#74),#99,.F.);
#74 = FACE_BOUND('',#75,.F.);
#75 = EDGE_LOOP('',(#76,#77,#85,#93));
#76 = ORIENTED_EDGE('',*,*,#21,.T.);
#77 = ORIENTED_EDGE('',*,*,#78,.T.);
#78 = EDGE_CURVE('',#24,#79,#81,.T.);
#79 = VERTEX_POINT('',#80);
#80 = CARTESIAN_POINT('',(-1.6,-0.5,0.75));
#81 = LINE('',#82,#83);
#82 = CARTESIAN_POINT('',(-1.6,1.222980050564E-16,0.75));
#83 = VECTOR('',#84,1.);
#84 = DIRECTION('',(0.,-1.,0.));
#85 = ORIENTED_EDGE('',*,*,#86,.F.);
#86 = EDGE_CURVE('',#87,#79,#89,.T.);
#87 = VERTEX_POINT('',#88);
#88 = CARTESIAN_POINT('',(-1.6,-0.5,0.25));
#89 = LINE('',#90,#91);
#90 = CARTESIAN_POINT('',(-1.6,-0.5,0.));
#91 = VECTOR('',#92,1.);
#92 = DIRECTION('',(0.,0.,1.));
#93 = ORIENTED_EDGE('',*,*,#94,.F.);
#94 = EDGE_CURVE('',#22,#87,#95,.T.);
#95 = LINE('',#96,#97);
#96 = CARTESIAN_POINT('',(-1.6,1.222980050564E-16,0.25));
#97 = VECTOR('',#98,1.);
#98 = DIRECTION('',(0.,-1.,0.));
#99 = PLANE('',#100);
#100 = AXIS2_PLACEMENT_3D('',#101,#102,#103);
#101 = CARTESIAN_POINT('',(-1.6,1.224646799147E-16,0.));
#102 = DIRECTION('',(1.,0.,0.));
#103 = DIRECTION('',(0.,-1.,0.));
#104 = ADVANCED_FACE('',(#105),#123,.T.);
#105 = FACE_BOUND('',#106,.F.);
#106 = EDGE_LOOP('',(#107,#108,#109,#117));
#107 = ORIENTED_EDGE('',*,*,#31,.F.);
#108 = ORIENTED_EDGE('',*,*,#94,.T.);
#109 = ORIENTED_EDGE('',*,*,#110,.T.);
#110 = EDGE_CURVE('',#87,#111,#113,.T.);
#111 = VERTEX_POINT('',#112);
#112 = CARTESIAN_POINT('',(-1.35,-0.5,-8.326672684689E-17));
#113 = LINE('',#114,#115);
#114 = CARTESIAN_POINT('',(-1.475,-0.5,0.125));
#115 = VECTOR('',#116,1.);
#116 = DIRECTION('',(0.707106781187,0.,-0.707106781187));
#117 = ORIENTED_EDGE('',*,*,#118,.F.);
#118 = EDGE_CURVE('',#32,#111,#119,.T.);
#119 = LINE('',#120,#121);
#120 = CARTESIAN_POINT('',(-1.35,1.222980050564E-16,0.));
#121 = VECTOR('',#122,1.);
#122 = DIRECTION('',(0.,-1.,0.));
#123 = PLANE('',#124);
#124 = AXIS2_PLACEMENT_3D('',#125,#126,#127);
#125 = CARTESIAN_POINT('',(-1.475,1.222980050564E-16,0.125));
#126 = DIRECTION('',(-0.707106781187,0.,-0.707106781187));
#127 = DIRECTION('',(-0.,1.,-0.));
#128 = ADVANCED_FACE('',(#129),#147,.F.);
#129 = FACE_BOUND('',#130,.T.);
#130 = EDGE_LOOP('',(#131,#132,#133,#141));
#131 = ORIENTED_EDGE('',*,*,#63,.F.);
#132 = ORIENTED_EDGE('',*,*,#78,.T.);
#133 = ORIENTED_EDGE('',*,*,#134,.T.);
#134 = EDGE_CURVE('',#79,#135,#137,.T.);
#135 = VERTEX_POINT('',#136);
#136 = CARTESIAN_POINT('',(-1.35,-0.5,1.));
#137 = LINE('',#138,#139);
#138 = CARTESIAN_POINT('',(-1.725,-0.5,0.625));
#139 = VECTOR('',#140,1.);
#140 = DIRECTION('',(0.707106781187,0.,0.707106781187));
#141 = ORIENTED_EDGE('',*,*,#142,.F.);
#142 = EDGE_CURVE('',#56,#135,#143,.T.);
#143 = LINE('',#144,#145);
#144 = CARTESIAN_POINT('',(-1.35,1.222980050564E-16,1.));
#145 = VECTOR('',#146,1.);
#146 = DIRECTION('',(0.,-1.,0.));
#147 = PLANE('',#148);
#148 = AXIS2_PLACEMENT_3D('',#149,#150,#151);
#149 = CARTESIAN_POINT('',(-1.475,1.222980050564E-16,0.875));
#150 = DIRECTION('',(0.707106781187,0.,-0.707106781187));
#151 = DIRECTION('',(-0.,1.,-0.));
#152 = ADVANCED_FACE('',(#153),#188,.F.);
#153 = FACE_BOUND('',#154,.F.);
#154 = EDGE_LOOP('',(#155,#156,#157,#165,#173,#181));
#155 = ORIENTED_EDGE('',*,*,#39,.T.);
#156 = ORIENTED_EDGE('',*,*,#118,.T.);
#157 = ORIENTED_EDGE('',*,*,#158,.T.);
#158 = EDGE_CURVE('',#111,#159,#161,.T.);
#159 = VERTEX_POINT('',#160);
#160 = CARTESIAN_POINT('',(1.35,-0.5,-8.326672684689E-17));
#161 = LINE('',#162,#163);
#162 = CARTESIAN_POINT('',(-1.6,-0.5,0.));
#163 = VECTOR('',#164,1.);
#164 = DIRECTION('',(1.,0.,0.));
#165 = ORIENTED_EDGE('',*,*,#166,.T.);
#166 = EDGE_CURVE('',#159,#167,#169,.T.);
#167 = VERTEX_POINT('',#168);
#168 = CARTESIAN_POINT('',(1.35,0.,-8.326672684689E-17));
#169 = LINE('',#170,#171);
#170 = CARTESIAN_POINT('',(1.35,-0.5,0.));
#171 = VECTOR('',#172,1.);
#172 = DIRECTION('',(0.,1.,0.));
#173 = ORIENTED_EDGE('',*,*,#174,.T.);
#174 = EDGE_CURVE('',#167,#175,#177,.T.);
#175 = VERTEX_POINT('',#176);
#176 = CARTESIAN_POINT('',(1.,-1.694818351061E-32,0.));
#177 = LINE('',#178,#179);
#178 = CARTESIAN_POINT('',(1.6,0.,0.));
#179 = VECTOR('',#180,1.);
#180 = DIRECTION('',(-1.,-2.824697251768E-32,0.));
#181 = ORIENTED_EDGE('',*,*,#182,.T.);
#182 = EDGE_CURVE('',#175,#40,#183,.T.);
#183 = CIRCLE('',#184,1.);
#184 = AXIS2_PLACEMENT_3D('',#185,#186,#187);
#185 = CARTESIAN_POINT('',(0.,-1.694818351061E-32,0.));
#186 = DIRECTION('',(0.,0.,1.));
#187 = DIRECTION('',(1.,0.,0.));
#188 = PLANE('',#189);
#189 = AXIS2_PLACEMENT_3D('',#190,#191,#192);
#190 = CARTESIAN_POINT('',(0.,-1.404157052751E-02,0.));
#191 = DIRECTION('',(0.,0.,1.));
#192 = DIRECTION('',(1.,0.,0.));
#193 = ADVANCED_FACE('',(#194),#229,.T.);
#194 = FACE_BOUND('',#195,.T.);
#195 = EDGE_LOOP('',(#196,#197,#198,#206,#214,#222));
#196 = ORIENTED_EDGE('',*,*,#55,.T.);
#197 = ORIENTED_EDGE('',*,*,#142,.T.);
#198 = ORIENTED_EDGE('',*,*,#199,.T.);
#199 = EDGE_CURVE('',#135,#200,#202,.T.);
#200 = VERTEX_POINT('',#201);
#201 = CARTESIAN_POINT('',(1.35,-0.5,1.));
#202 = LINE('',#203,#204);
#203 = CARTESIAN_POINT('',(-1.6,-0.5,1.));
#204 = VECTOR('',#205,1.);
#205 = DIRECTION('',(1.,0.,0.));
#206 = ORIENTED_EDGE('',*,*,#207,.T.);
#207 = EDGE_CURVE('',#200,#208,#210,.T.);
#208 = VERTEX_POINT('',#209);
#209 = CARTESIAN_POINT('',(1.35,0.,1.));
#210 = LINE('',#211,#212);
#211 = CARTESIAN_POINT('',(1.35,-0.5,1.));
#212 = VECTOR('',#213,1.);
#213 = DIRECTION('',(0.,1.,0.));
#214 = ORIENTED_EDGE('',*,*,#215,.T.);
#215 = EDGE_CURVE('',#208,#216,#218,.T.);
#216 = VERTEX_POINT('',#217);
#217 = CARTESIAN_POINT('',(1.,-1.694818351061E-32,1.));
#218 = LINE('',#219,#220);
#219 = CARTESIAN_POINT('',(1.6,0.,1.));
#220 = VECTOR('',#221,1.);
#221 = DIRECTION('',(-1.,-2.824697251768E-32,0.));
#222 = ORIENTED_EDGE('',*,*,#223,.T.);
#223 = EDGE_CURVE('',#216,#48,#224,.T.);
#224 = CIRCLE('',#225,1.);
#225 = AXIS2_PLACEMENT_3D('',#226,#227,#228);
#226 = CARTESIAN_POINT('',(0.,-1.694818351061E-32,1.));
#227 = DIRECTION('',(0.,0.,1.));
#228 = DIRECTION('',(1.,0.,0.));
#229 = PLANE('',#230);
#230 = AXIS2_PLACEMENT_3D('',#231,#232,#233);
#231 = CARTESIAN_POINT('',(0.,-1.404157052751E-02,1.));
#232 = DIRECTION('',(0.,0.,1.));
#233 = DIRECTION('',(1.,0.,0.));
#234 = ADVANCED_FACE('',(#235),#246,.T.);
#235 = FACE_BOUND('',#236,.F.);
#236 = EDGE_LOOP('',(#237,#243,#244,#245));
#237 = ORIENTED_EDGE('',*,*,#238,.T.);
#238 = EDGE_CURVE('',#175,#216,#239,.T.);
#239 = LINE('',#240,#241);
#240 = CARTESIAN_POINT('',(1.,-1.694818351061E-32,0.));
#241 = VECTOR('',#242,1.);
#242 = DIRECTION('',(0.,0.,1.));
#243 = ORIENTED_EDGE('',*,*,#223,.T.);
#244 = ORIENTED_EDGE('',*,*,#47,.F.);
#245 = ORIENTED_EDGE('',*,*,#182,.F.);
#246 = CYLINDRICAL_SURFACE('',#247,1.);
#247 = AXIS2_PLACEMENT_3D('',#248,#249,#250);
#248 = CARTESIAN_POINT('',(0.,-1.694818351061E-32,0.));
#249 = DIRECTION('',(-0.,-0.,-1.));
#250 = DIRECTION('',(1.,0.,0.));
#251 = ADVANCED_FACE('',(#252),#281,.F.);
#252 = FACE_BOUND('',#253,.F.);
#253 = EDGE_LOOP('',(#254,#255,#256,#257,#265,#273,#279,#280));
#254 = ORIENTED_EDGE('',*,*,#86,.T.);
#255 = ORIENTED_EDGE('',*,*,#134,.T.);
#256 = ORIENTED_EDGE('',*,*,#199,.T.);
#257 = ORIENTED_EDGE('',*,*,#258,.F.);
#258 = EDGE_CURVE('',#259,#200,#261,.T.);
#259 = VERTEX_POINT('',#260);
#260 = CARTESIAN_POINT('',(1.6,-0.5,0.75));
#261 = LINE('',#262,#263);
#262 = CARTESIAN_POINT('',(0.925,-0.5,1.425));
#263 = VECTOR('',#264,1.);
#264 = DIRECTION('',(-0.707106781187,0.,0.707106781187));
#265 = ORIENTED_EDGE('',*,*,#266,.F.);
#266 = EDGE_CURVE('',#267,#259,#269,.T.);
#267 = VERTEX_POINT('',#268);
#268 = CARTESIAN_POINT('',(1.6,-0.5,0.25));
#269 = LINE('',#270,#271);
#270 = CARTESIAN_POINT('',(1.6,-0.5,0.));
#271 = VECTOR('',#272,1.);
#272 = DIRECTION('',(0.,0.,1.));
#273 = ORIENTED_EDGE('',*,*,#274,.T.);
#274 = EDGE_CURVE('',#267,#159,#275,.T.);
#275 = LINE('',#276,#277);
#276 = CARTESIAN_POINT('',(0.675,-0.5,-0.675));
#277 = VECTOR('',#278,1.);
#278 = DIRECTION('',(-0.707106781187,0.,-0.707106781187));
#279 = ORIENTED_EDGE('',*,*,#158,.F.);
#280 = ORIENTED_EDGE('',*,*,#110,.F.);
#281 = PLANE('',#282);
#282 = AXIS2_PLACEMENT_3D('',#283,#284,#285);
#283 = CARTESIAN_POINT('',(-1.6,-0.5,0.));
#284 = DIRECTION('',(0.,1.,0.));
#285 = DIRECTION('',(1.,0.,0.));
#286 = ADVANCED_FACE('',(#287),#314,.F.);
#287 = FACE_BOUND('',#288,.F.);
#288 = EDGE_LOOP('',(#289,#299,#305,#306,#307,#308));
#289 = ORIENTED_EDGE('',*,*,#290,.T.);
#290 = EDGE_CURVE('',#291,#293,#295,.T.);
#291 = VERTEX_POINT('',#292);
#292 = CARTESIAN_POINT('',(1.6,0.,0.25));
#293 = VERTEX_POINT('',#294);
#294 = CARTESIAN_POINT('',(1.6,0.,0.75));
#295 = LINE('',#296,#297);
#296 = CARTESIAN_POINT('',(1.6,0.,0.));
#297 = VECTOR('',#298,1.);
#298 = DIRECTION('',(0.,0.,1.));
#299 = ORIENTED_EDGE('',*,*,#300,.T.);
#300 = EDGE_CURVE('',#293,#208,#301,.T.);
#301 = LINE('',#302,#303);
#302 = CARTESIAN_POINT('',(1.725,5.551115123126E-17,0.625));
#303 = VECTOR('',#304,1.);
#304 = DIRECTION('',(-0.707106781187,-1.997362581524E-32,0.707106781187)
  );
#305 = ORIENTED_EDGE('',*,*,#215,.T.);
#306 = ORIENTED_EDGE('',*,*,#238,.F.);
#307 = ORIENTED_EDGE('',*,*,#174,.F.);
#308 = ORIENTED_EDGE('',*,*,#309,.F.);
#309 = EDGE_CURVE('',#291,#167,#310,.T.);
#310 = LINE('',#311,#312);
#311 = CARTESIAN_POINT('',(1.475,5.551115123126E-17,0.125));
#312 = VECTOR('',#313,1.);
#313 = DIRECTION('',(-0.707106781187,-1.997362581524E-32,-0.707106781187
    ));
#314 = PLANE('',#315);
#315 = AXIS2_PLACEMENT_3D('',#316,#317,#318);
#316 = CARTESIAN_POINT('',(1.6,0.,0.));
#317 = DIRECTION('',(2.824697251768E-32,-1.,0.));
#318 = DIRECTION('',(-1.,-2.824697251768E-32,0.));
#319 = ADVANCED_FACE('',(#320),#331,.T.);
#320 = FACE_BOUND('',#321,.F.);
#321 = EDGE_LOOP('',(#322,#323,#329,#330));
#322 = ORIENTED_EDGE('',*,*,#274,.F.);
#323 = ORIENTED_EDGE('',*,*,#324,.T.);
#324 = EDGE_CURVE('',#267,#291,#325,.T.);
#325 = LINE('',#326,#327);
#326 = CARTESIAN_POINT('',(1.6,-0.5,0.25));
#327 = VECTOR('',#328,1.);
#328 = DIRECTION('',(0.,1.,0.));
#329 = ORIENTED_EDGE('',*,*,#309,.T.);
#330 = ORIENTED_EDGE('',*,*,#166,.F.);
#331 = PLANE('',#332);
#332 = AXIS2_PLACEMENT_3D('',#333,#334,#335);
#333 = CARTESIAN_POINT('',(1.475,-0.5,0.125));
#334 = DIRECTION('',(0.707106781187,0.,-0.707106781187));
#335 = DIRECTION('',(-0.,-1.,-0.));
#336 = ADVANCED_FACE('',(#337),#348,.F.);
#337 = FACE_BOUND('',#338,.T.);
#338 = EDGE_LOOP('',(#339,#340,#346,#347));
#339 = ORIENTED_EDGE('',*,*,#258,.F.);
#340 = ORIENTED_EDGE('',*,*,#341,.T.);
#341 = EDGE_CURVE('',#259,#293,#342,.T.);
#342 = LINE('',#343,#344);
#343 = CARTESIAN_POINT('',(1.6,-0.5,0.75));
#344 = VECTOR('',#345,1.);
#345 = DIRECTION('',(0.,1.,0.));
#346 = ORIENTED_EDGE('',*,*,#300,.T.);
#347 = ORIENTED_EDGE('',*,*,#207,.F.);
#348 = PLANE('',#349);
#349 = AXIS2_PLACEMENT_3D('',#350,#351,#352);
#350 = CARTESIAN_POINT('',(1.475,-0.5,0.875));
#351 = DIRECTION('',(-0.707106781187,0.,-0.707106781187));
#352 = DIRECTION('',(-0.,-1.,-0.));
#353 = ADVANCED_FACE('',(#354),#360,.F.);
#354 = FACE_BOUND('',#355,.F.);
#355 = EDGE_LOOP('',(#356,#357,#358,#359));
#356 = ORIENTED_EDGE('',*,*,#266,.T.);
#357 = ORIENTED_EDGE('',*,*,#341,.T.);
#358 = ORIENTED_EDGE('',*,*,#290,.F.);
#359 = ORIENTED_EDGE('',*,*,#324,.F.);
#360 = PLANE('',#361);
#361 = AXIS2_PLACEMENT_3D('',#362,#363,#364);
#362 = CARTESIAN_POINT('',(1.6,-0.5,0.));
#363 = DIRECTION('',(-1.,0.,0.));
#364 = DIRECTION('',(0.,1.,0.));
#365 = ( GEOMETRIC_REPRESENTATION_CONTEXT(3) 
GLOBAL_UNCERTAINTY_ASSIGNED_CONTEXT((#369)) GLOBAL_UNIT_ASSIGNED_CONTEXT
((#366,#367,#368)) REPRESENTATION_CONTEXT('Context #1',
  '3D Context with UNIT and UNCERTAINTY') );
#366 = ( LENGTH_UNIT() NAMED_UNIT(*) SI_UNIT(.MILLI.,.METRE.) );
#367 = ( NAMED_UNIT(*) PLANE_ANGLE_UNIT() SI_UNIT($,.RADIAN.) );
#368 = ( NAMED_UNIT(*) SI_UNIT($,.STERADIAN.) SOLID_ANGLE_UNIT() );
#369 = UNCERTAINTY_MEASURE_WITH_UNIT(LENGTH_MEASURE(5.E-05),#366,
  'distance_accuracy_value','confusion accuracy');
#370 = PRODUCT_RELATED_PRODUCT_CATEGORY('part',$,(#7));
#371 = MECHANICAL_DESIGN_GEOMETRIC_PRESENTATION_REPRESENTATION('',(#372)
  ,#365);
#372 = STYLED_ITEM('color',(#373),#15);
#373 = PRESENTATION_STYLE_ASSIGNMENT((#374,#380));
#374 = SURFACE_STYLE_USAGE(.BOTH.,#375);
#375 = SURFACE_SIDE_STYLE('',(#376));
#376 = SURFACE_STYLE_FILL_AREA(#377);
#377 = FILL_AREA_STYLE('',(#378));
#378 = FILL_AREA_STYLE_COLOUR('',#379);
#379 = COLOUR_RGB('',0.800000011921,0.800000011921,0.800000011921);
#380 = CURVE_STYLE('',#381,POSITIVE_LENGTH_MEASURE(0.1),#382);
#381 = DRAUGHTING_PRE_DEFINED_CURVE_FONT('continuous');
#382 = COLOUR_RGB('',9.803921729326E-02,9.803921729326E-02,
  9.803921729326E-02);
ENDSEC;
END-ISO-10303-21;
