0
SECTION
2
HEADER
9
$INSUNITS
70
4
9
$ACADVER
1
AC1014
9
$HANDSEED
5
FFFF
0
ENDSEC
0
SECTION
2
TABLES
0
TABLE
2
VPORT
5
8
100
AcDbSymbolTable
0
ENDTAB
0
TABLE
2
LTYPE
5
5
100
AcDbSymbolTable
0
LTYPE
5
14
100
AcDbSymbolTableRecord
100
AcDbLinetypeTableRecord
2
BYBLOCK
70
0
0
LTYPE
5
15
100
AcDbSymbolTableRecord
100
AcDbLinetypeTableRecord
2
BYLAYER
70
0
0
ENDTAB
0
TABLE
2
LAYER
5
2
100
AcDbSymbolTable
70
2
0
LAYER
5
50
100
AcDbSymbolTableRecord
100
AcDbLayerTableRecord
2
0
70
0
6
CONTINUOUS
0
ENDTAB
0
TABLE
2
STYLE
5
3
100
AcDbSymbolTable
70
1
0
STYLE
5
11
100
AcDbSymbolTableRecord
100
AcDbTextStyleTableRecord
2
STANDARD
70
0
0
ENDTAB
0
TABLE
2
VIEW
5
6
100
AcDbSymbolTable
70
0
0
ENDTAB
0
TABLE
2
UCS
5
7
100
AcDbSymbolTable
70
0
0
ENDTAB
0
TABLE
2
APPID
5
9
100
AcDbSymbolTable
70
2
0
APPID
5
12
100
AcDbSymbolTableRecord
100
AcDbRegAppTableRecord
2
ACAD
70
0
0
ENDTAB
0
TABLE
2
DIMSTYLE
5
A
100
AcDbSymbolTable
70
1
0
ENDTAB
0
TABLE
2
BLOCK_RECORD
5
1
100
AcDbSymbolTable
70
1
0
BLOCK_RECORD
5
1F
100
AcDbSymbolTableRecord
100
AcDbBlockTableRecord
2
*MODEL_SPACE
0
BLOCK_RECORD
5
1B
100
AcDbSymbolTableRecord
100
AcDbBlockTableRecord
2
*PAPER_SPACE
0
ENDTAB
0
ENDSEC
0
SECTION
2
BLOCKS
0
BLOCK
5
20
100
AcDbEntity
100
AcDbBlockBegin
2
*MODEL_SPACE
0
ENDBLK
5
21
100
AcDbEntity
100
AcDbBlockEnd
0
BLOCK
5
1C
100
AcDbEntity
100
AcDbBlockBegin
2
*PAPER_SPACE
0
ENDBLK
5
1D
100
AcDbEntity
100
AcDbBlockEnd
0
ENDSEC
0
SECTION
2
ENTITIES
0
LWPOLYLINE
5
100
100
AcDbEntity
8
0
100
AcDbPolyline
90
192
70
1
43
0.0
10
13.784162125005002
20
-14.491268906192001
10
14.142135588137002
20
-14.849242369322999
42
1.0000000357317296
10
14.849242415793775
20
-14.142135634607227
10
14.491268906191884
20
-13.784162125005119
42
-0.95599841167851296
10
15.030398105472917
20
-13.194208304821098
42
0.016598391102816044
10
15.87257537356084
20
-12.168046310342094
42
-0.98020000720909894
10
16.346409632227786
20
-11.523666609868302
10
16.767341893838001
20
-11.804924555087
42
1.0000000357317296
10
17.322912181500911
20
-10.973454979296136
10
16.901979865248425
20
-10.692196997565366
42
-0.95599841167689803
10
17.315655567383264
20
-10.008400085514515
42
0.016598391102810188
10
17.941456361471115
20
-8.8376548715950474
42
-0.98020000720885792
10
18.280473784456852
20
-8.1132162682743427
10
18.748188653793001
20
-8.3069501104770005
42
1.0000000357317296
10
19.130872146875024
20
-7.3830706031149447
10
18.663157216822054
20
-7.1893367357628746
42
-0.95599841167766253
10
18.935482096571132
20
-6.4379746636985971
42
0.016598391102826088
10
19.320857243094771
20
-5.1676373123461694
42
-0.98020000721022471
10
19.512029580956046
20
-4.390979575433807
10
20.008553037887999
20
-4.4897442317119998
42
1.0000000349463209
10
20.203643424359967
20
-3.5089589641301582
10
19.707119902972938
20
-3.4101942950313262
42
-0.95599841167803212
10
19.827628667928987
20
-2.6201414860141941
42
0.01659839110282316
10
19.957768416127649
20
-1.2990303492288184
42
-0.98020000721031175
10
19.993749023132001
20
-0.4999999999999678
10
20.499999949662001
20
-0.5
42
1.0000000333200096
10
20.500000015382
20
0.50000000000000444
10
19.993749023132001
20
0.50000000000000422
42
-0.95599841167829591
10
19.95781058903998
20
1.2983822595863028
42
0.016598391102820652
10
19.827713741374268
20
2.6194976217049688
42
-0.98020000721145506
10
19.707119902973002
20
3.4101942950310042
10
20.203643359904003
20
3.5089589513090003
42
1.0000000349463209
10
20.008553102343921
20
4.489744244533405
10
19.512029580956082
20
4.3909795754335992
42
-0.9559984116767154
10
19.321025041683271
20
5.1670099030910936
42
0.016598391102826925
10
18.935691147049745
20
6.4373597680681254
42
-0.98020000720984346
10
18.663157216821954
20
7.1893367357631206
10
19.130872086158
20
7.3830705779650003
42
1.0000000349463209
10
18.748188714509912
20
8.3069501356262201
10
18.280473784457072
20
8.1132162682738311
42
-0.95599841167856481
10
17.941743337331197
20
8.8370722537136377
42
0.016598391102752016
10
17.315980561204103
20
10.007837788653545
42
-0.98020000721144962
10
16.901979865247334
20
10.692196997561055
10
17.322912126858
20
10.973454942780002
42
1.0000000349463209
10
16.767341948478698
20
11.804924591594938
10
16.346409632227875
20
11.523666609860186
42
-0.95599841168193322
10
15.872970498372396
20
12.167530873507033
42
0.016598391102826925
10
15.030826553305435
20
13.193720215483133
42
-0.98020000721954681
10
14.491268906193334
20
13.784162124998602
10
14.849242369322999
20
14.142135588129999
42
1.0000000349463209
10
14.142135634607225
20
14.849242415789776
10
13.784162125006116
20
14.491268906188886
42
-0.95599841168112498
10
13.194208304821593
20
15.030398105469509
42
0.016598391102841153
10
12.168046310344508
20
15.872575373558993
42
-0.9802000072109569
10
11.52366660986689
20
16.346409632220784
10
11.804924555087
20
16.76734189383
42
1.0000000349463209
10
10.9734549792966
20
17.322912181499603
10
10.692196997563519
20
16.90197986524166
42
-0.95599841167397026
10
10.008400085514936
20
17.315655567380034
42
0.01659839110282902
10
8.8376548715958396
20
17.941456361470721
42
-0.98020000720545108
10
8.1132162682724882
20
18.28047378445067
10
8.3069501104770005
20
18.748188653789999
42
1.0000000349463209
10
7.3830706031135298
20
19.130872146870608
10
7.1893367357649938
20
18.663157216819176
42
-0.95599841169228028
10
6.4379746637005884
20
18.935482096569508
42
0.016598391102840317
10
5.1676373123471686
20
19.320857243094505
42
-0.98020000721256573
10
4.3909795754333771
20
19.512029580950141
10
4.4897442317119998
20
20.008553037880002
42
1.0000000357317296
10
3.5089589641313061
20
20.20364342435974
10
3.4101942950319004
20
19.707119902969822
42
-0.95599841167797783
10
2.6201414860138765
20
19.827628667920017
42
0.016598391102827348
10
1.2990303492288835
20
19.957768416127646
42
-0.98020000721031175
10
0.49999999999994282
20
19.993749023130004
10
0.50000000000000011
20
20.499999949660005
42
1.0000000333200096
10
-0.50000000000000233
20
20.500000015380003
10
-0.50000000000000433
20
19.99374902313
42
-0.95599841168067679
10
-1.2983822595864813
20
19.957810589039958
42
0.016598391102824416
10
-2.619497621705098
20
19.82771374137425
42
-0.98020000721024092
10
-3.4101942950306672
20
19.707119902970057
10
-3.5089589513090003
20
20.203643359899999
42
1.0000000333200096
10
-4.489744244533787
20
20.008553102339842
10
-4.3909795754337893
20
19.512029580950042
42
-0.95599841168247246
10
-5.1670099030921772
20
19.321025041679945
42
0.016598391102803908
10
-6.4373597680696468
20
18.935691147049226
42
-0.98020000721907052
10
-7.1893367357641269
20
18.663157216819567
10
-7.3830705779650003
20
19.130872086149999
42
1.0000000349463209
10
-8.3069501356265736
20
18.748188714509762
10
-8.1132162682717084
20
18.280473784450948
42
-0.95599841167192434
10
-8.8370722537136341
20
17.941743337330195
42
0.016598391102758712
10
-10.007837788655703
20
17.315980561202849
42
-0.98020000721363398
10
-10.6921969975597
20
16.90197986524019
10
-10.973454942780002
20
17.322912126849999
42
1.0000000349463209
10
-11.804924591594938
20
16.767341948476698
10
-11.523666609860184
20
16.346409632219874
42
-0.95599841168938249
10
-12.167530873510945
20
15.872970498369238
42
0.016598391102771684
10
-13.193720215486106
20
15.030826553302823
42
-0.98020000722862011
10
-13.784162125000599
20
14.491268906189433
10
-14.142135588129999
20
14.849242369320002
42
1.0000000349463209
10
-14.849242415788275
20
14.142135634601727
10
-14.491268906190387
20
13.784162124999618
42
-0.95599841168902888
10
-15.030398105472953
20
13.194208304816467
42
0.01659839110278382
10
-15.872575373561403
20
12.168046310341357
42
-0.98020000721256273
10
-16.346409632219373
20
11.523666609860893
10
-16.76734189383
20
11.804924555080001
42
1.0000000357317296
10
-17.322912181497752
20
10.973454979293365
10
-16.901979865240275
20
10.692196997559591
42
-0.95599841167082844
10
-17.315655567379192
20
10.008400085511477
42
0.016598391102797212
10
-17.941456361470721
20
8.8376548715958396
42
-0.98020000720545108
10
-18.28047378445067
20
8.1132162682724882
10
-18.748188653789999
20
8.3069501104770005
42
1.0000000349463209
10
-19.130872146870608
20
7.3830706031135298
10
-18.663157216819176
20
7.1893367357649938
42
-0.95599841169228028
10
-18.935482096569508
20
6.4379746637005884
42
0.016598391102840317
10
-19.320857243094505
20
5.1676373123471686
42
-0.98020000721256573
10
-19.512029580950141
20
4.3909795754333771
10
-20.008553037880002
20
4.4897442317119998
42
1.0000000357317296
10
-20.20364342435974
20
3.5089589641313061
10
-19.707119902969822
20
3.4101942950319004
42
-0.95599841167797783
10
-19.827628667920017
20
2.6201414860138765
42
0.016598391102827348
10
-19.957768416127646
20
1.2990303492288835
42
-0.98020000721031175
10
-19.993749023130004
20
0.49999999999994282
10
-20.499999949660005
20
0.5
42
1.0000000333200096
10
-20.500000015380003
20
-0.50000000000000211
10
-19.99374902313
20
-0.50000000000000433
42
-0.95599841168067679
10
-19.957810589039958
20
-1.2983822595864813
42
0.016598391102824416
10
-19.82771374137425
20
-2.6194976217050976
42
-0.98020000721024214
10
-19.707119902970057
20
-3.4101942950306672
10
-20.203643359899999
20
-3.5089589513090003
42
1.0000000333200096
10
-20.008553102339842
20
-4.489744244533787
10
-19.512029580950042
20
-4.3909795754337893
42
-0.95599841168247246
10
-19.321025041679945
20
-5.1670099030921772
42
0.016598391102803908
10
-18.935691147049226
20
-6.4373597680696468
42
-0.98020000721907052
10
-18.663157216819567
20
-7.1893367357641269
10
-19.130872086149999
20
-7.3830705779650003
42
1.0000000349463209
10
-18.748188714509762
20
-8.3069501356265736
10
-18.280473784450948
20
-8.1132162682717084
42
-0.95599841167192434
10
-17.941743337330195
20
-8.8370722537136341
42
0.01659839110283404
10
-17.315980561201116
20
-10.007837788658701
42
-0.98020000721249623
10
-16.901979865241096
20
-10.692196997564272
10
-17.322912126849999
20
-10.973454942785001
42
1.0000000349463209
10
-16.767341948479935
20
-11.8049245915991
10
-16.346409632219878
20
-11.523666609868183
42
-0.95599841168562794
10
-15.872970498366801
20
-12.167530873516974
42
0.016598391102769169
10
-15.030826553298853
20
-13.193720215490623
42
-0.9802000072196152
10
-14.491268906187935
20
-13.784162125007175
10
-14.849242369320002
20
-14.142135588137002
42
1.0000000349463209
10
-14.142135634601727
20
-14.849242415792276
10
-13.784162124998616
20
-14.491268906193383
42
-0.95599841168641742
10
-13.194208304815973
20
-15.030398105476364
42
0.016598391102758712
10
-12.168046310338944
20
-15.872575373563254
42
-0.98020000721070921
10
-11.523666609862303
20
-16.346409632226376
10
-11.804924555080001
20
-16.767341893838001
42
1.0000000357317296
10
-10.973454979292903
20
-17.322912181499063
10
-10.692196997561439
20
-16.901979865247036
42
-0.95599841167375865
10
-10.008400085511058
20
-17.315655567382422
42
0.016598391102777964
10
-8.8376548715950456
20
-17.941456361471111
42
-0.98020000720885547
10
-8.1132162682743427
20
-18.280473784456852
10
-8.3069501104770005
20
-18.748188653793001
42
1.0000000357317296
10
-7.3830706031149447
20
-19.130872146875024
10
-7.1893367357628746
20
-18.663157216822054
42
-0.95599841167766253
10
-6.4379746636985971
20
-18.935482096571132
42
0.016598391102826088
10
-5.1676373123461694
20
-19.320857243094771
42
-0.98020000721022471
10
-4.390979575433807
20
-19.512029580956046
10
-4.4897442317119998
20
-20.008553037887999
42
1.0000000349463209
10
-3.5089589641301582
20
-20.203643424359967
10
-3.4101942950313262
20
-19.707119902972938
42
-0.95599841167803212
10
-2.6201414860141941
20
-19.827628667928987
42
0.01659839110282316
10
-1.2990303492288184
20
-19.957768416127649
42
-0.98020000721031175
10
-0.4999999999999678
20
-19.993749023132001
10
-0.50000000000000022
20
-20.499999949662001
42
1.0000000349463209
10
0.49999999999999983
20
-20.500000015382
10
0.50000000000000422
20
-19.993749023132001
42
-0.95599841167829591
10
1.2983822595863028
20
-19.95781058903998
42
0.016598391102820652
10
2.6194976217049684
20
-19.827713741374264
42
-0.98020000721144962
10
3.4101942950310042
20
-19.707119902973002
10
3.5089589513090003
20
-20.203643359904003
42
1.0000000349463209
10
4.489744244533405
20
-20.008553102343921
10
4.3909795754335992
20
-19.512029580956082
42
-0.9559984116767154
10
5.1670099030910936
20
-19.321025041683271
42
0.016598391102826925
10
6.4373597680681254
20
-18.935691147049745
42
-0.98020000720984346
10
7.1893367357631206
20
-18.663157216821954
10
7.3830705779650003
20
-19.130872086158
42
1.0000000349463209
10
8.3069501356262201
20
-18.748188714509912
10
8.1132162682738311
20
-18.280473784457072
42
-0.95599841167856481
10
8.8370722537136377
20
-17.941743337331197
42
0.016598391102827764
10
10.007837788656538
20
-17.315980561202366
42
-0.98020000721030076
10
10.692196997565626
20
-16.901979865248236
10
10.973454942785001
20
-17.322912126858
42
1.0000000357317296
10
11.8049245915991
20
-16.767341948481935
10
11.523666609868183
20
-16.346409632227878
42
-0.95599841167818111
10
12.167530873513062
20
-15.872970498369952
42
0.01659839110282316
10
13.193720215487833
20
-15.030826553301306
42
-0.98020000721053757
0
LWPOLYLINE
5
101
100
AcDbEntity
8
0
100
AcDbPolyline
90
4
70
1
43
0.0
10
1.2984359698390002
20
-0.40504818166700041
10
-0.29843598046423697
20
-1.3270026320355903
42
-0.25371270215697872
10
-0.67969064735612883
20
-1.3371688838350257
42
-1.8439024098098533
10
1.4978673916399179
20
-0.079957970444972659
42
-0.25371078116493873
0
LWPOLYLINE
5
102
100
AcDbEntity
8
0
100
AcDbPolyline
90
4
70
1
43
0.0
10
1.5000000000000002
20
-10
42
0.99999999999999989
10
-1.5000000000000002
20
-10
10
-1.5000000000000002
20
-12.000000000000002
42
0.99999999999999989
10
1.5000000000000002
20
-12.000000000000002
0
LWPOLYLINE
5
103
100
AcDbEntity
8
0
100
AcDbPolyline
90
4
70
1
43
0.0
10
-9.4102540378438544
20
3.7009618943232558
42
0.99999999999999989
10
-7.9102540378441475
20
6.2990381056767442
10
-9.642304845412399
20
7.2990381056780427
42
0.9999999925494194
10
-11.142304845410001
20
4.700961894323
0
LWPOLYLINE
5
104
100
AcDbEntity
8
0
100
AcDbPolyline
90
4
70
1
43
0.0
10
7.910254037837916
20
6.2990381056731461
42
0.99999999999999989
10
9.4102540378380528
20
3.7009618943199074
10
11.142304845414035
20
4.7009618943239397
42
0.99999999999999989
10
9.6423048454139995
20
7.2990381056770008
0
CIRCLE
5
105
100
AcDbEntity
8
0
100
AcDbCircle
10
3.6914332836310004
20
-2.1312500000000001
30
0
40
1.3
210
0
220
0
230
-1
0
CIRCLE
5
106
100
AcDbEntity
8
0
100
AcDbCircle
10
0
20
11
30
0
40
1.5000000000000002
210
0
220
0
230
-1
0
CIRCLE
5
107
100
AcDbEntity
8
0
100
AcDbCircle
10
-3.6914332836310004
20
2.1312500000000001
30
0
40
1.3
210
0
220
0
230
-1
0
CIRCLE
5
108
100
AcDbEntity
8
0
100
AcDbCircle
10
-9.5262794416290006
20
-5.5
30
0
40
1.5000000000000002
210
0
220
0
230
-1
0
CIRCLE
5
109
100
AcDbEntity
8
0
100
AcDbCircle
10
9.5262794416290006
20
-5.5
30
0
40
1.5000000000000002
210
0
220
0
230
-1
0
ENDSEC
0
SECTION
2
OBJECTS
0
DICTIONARY
5
C
100
AcDbDictionary
3
ACAD_GROUP
350
D
3
ACAD_MLINESTYLE
350
17
0
DICTIONARY
5
D
100
AcDbDictionary
0
DICTIONARY
5
1A
330
C
100
AcDbDictionary
0
DICTIONARY
5
17
100
AcDbDictionary
0
ENDSEC
0
EOF
