0
SECTION
2
HEADER
9
$INSUNITS
70
4
9
$ACADVER
1
AC1014
9
$HANDSEED
5
FFFF
0
ENDSEC
0
SECTION
2
TABLES
0
TABLE
2
VPORT
5
8
100
AcDbSymbolTable
0
ENDTAB
0
TABLE
2
LTYPE
5
5
100
AcDbSymbolTable
0
LTYPE
5
14
100
AcDbSymbolTableRecord
100
AcDbLinetypeTableRecord
2
BYBLOCK
70
0
0
LTYPE
5
15
100
AcDbSymbolTableRecord
100
AcDbLinetypeTableRecord
2
BYLAYER
70
0
0
ENDTAB
0
TABLE
2
LAYER
5
2
100
AcDbSymbolTable
70
2
0
LAYER
5
50
100
AcDbSymbolTableRecord
100
AcDbLayerTableRecord
2
0
70
0
6
CONTINUOUS
0
ENDTAB
0
TABLE
2
STYLE
5
3
100
AcDbSymbolTable
70
1
0
STYLE
5
11
100
AcDbSymbolTableRecord
100
AcDbTextStyleTableRecord
2
STANDARD
70
0
0
ENDTAB
0
TABLE
2
VIEW
5
6
100
AcDbSymbolTable
70
0
0
ENDTAB
0
TABLE
2
UCS
5
7
100
AcDbSymbolTable
70
0
0
ENDTAB
0
TABLE
2
APPID
5
9
100
AcDbSymbolTable
70
2
0
APPID
5
12
100
AcDbSymbolTableRecord
100
AcDbRegAppTableRecord
2
ACAD
70
0
0
ENDTAB
0
TABLE
2
DIMSTYLE
5
A
100
AcDbSymbolTable
70
1
0
ENDTAB
0
TABLE
2
BLOCK_RECORD
5
1
100
AcDbSymbolTable
70
1
0
BLOCK_RECORD
5
1F
100
AcDbSymbolTableRecord
100
AcDbBlockTableRecord
2
*MODEL_SPACE
0
BLOCK_RECORD
5
1B
100
AcDbSymbolTableRecord
100
AcDbBlockTableRecord
2
*PAPER_SPACE
0
ENDTAB
0
ENDSEC
0
SECTION
2
BLOCKS
0
BLOCK
5
20
100
AcDbEntity
100
AcDbBlockBegin
2
*MODEL_SPACE
0
ENDBLK
5
21
100
AcDbEntity
100
AcDbBlockEnd
0
BLOCK
5
1C
100
AcDbEntity
100
AcDbBlockBegin
2
*PAPER_SPACE
0
ENDBLK
5
1D
100
AcDbEntity
100
AcDbBlockEnd
0
ENDSEC
0
SECTION
2
ENTITIES
0
LWPOLYLINE
5
100
100
AcDbEntity
8
0
100
AcDbPolyline
90
8
70
1
43
0.0
10
-37.119271665699422
20
-3.2841607271022637
42
-0.41421356237309576
10
-37.389869715772519
20
-2.6308792446640759
10
-36.241819418677252
20
0.14075935286977481
42
-0.41421356237309509
10
-35.588537936239064
20
0.4113574029428726
10
-35.126598169983424
20
0.2200156867603289
42
-0.41421356237309537
10
-34.856000119910327
20
-0.43326579567785795
10
-36.004050417005601
20
-3.2049043932117094
42
-0.41421356237309515
10
-36.657331899443783
20
-3.4755024432848067
0
LWPOLYLINE
5
101
100
AcDbEntity
8
0
100
AcDbPolyline
90
8
70
1
43
0.0
10
-42.904698756654433
20
0.69885463394839376
42
-0.41421356237309492
10
-42.904698756654433
20
1.40596141513494
10
-40.783378413094795
20
3.5272817586945808
42
-0.41421356237309087
10
-40.076271631908256
20
3.5272817586945768
10
-39.722718241314979
20
3.1737283681013007
42
-0.41421356237309331
10
-39.722718241314979
20
2.4666215869147563
10
-41.84403858487461
20
0.34530124335511952
42
-0.4142135623730942
10
-42.551145366061156
20
0.34530124335511991
0
LWPOLYLINE
5
102
100
AcDbEntity
8
0
100
AcDbPolyline
90
8
70
1
43
0.0
10
-46.725502443294332
20
6.592668100565799
42
-0.41421356237309581
10
-46.454904393221234
20
7.2459495830039859
10
-43.68326579568739
20
8.3939998800992512
42
-0.41421356237309154
10
-43.029984313249216
20
8.1234018300261539
10
-42.838642597066666
20
7.6614620637705144
42
-0.41421356237310081
10
-43.109240647139764
20
7.0081805813323204
10
-45.880879244673601
20
5.8601302842370586
42
-0.41421356237309659
10
-46.534160727111797
20
6.1307283343101524
0
LWPOLYLINE
5
103
100
AcDbEntity
8
0
100
AcDbPolyline
90
8
70
1
43
0.0
10
-47.999999999999886
20
13.500000000009582
42
-0.41421356237309509
10
-47.499999999999886
20
14.00000000000958
10
-44.499999999999901
20
14.000000000009578
42
-0.41421356237309509
10
-43.999999999999908
20
13.50000000000958
10
-43.999999999999908
20
13.000000000009582
42
-0.41421356237309509
10
-44.499999999999901
20
12.500000000009583
10
-47.499999999999886
20
12.500000000009583
42
-0.41421356237309509
10
-47.999999999999886
20
13.000000000009582
0
LWPOLYLINE
5
104
100
AcDbEntity
8
0
100
AcDbPolyline
90
8
70
1
43
0.0
10
-46.534160727111775
20
20.369271665709
42
-0.41421356237309509
10
-45.880879244673594
20
20.639869715782101
10
-43.109240647139742
20
19.491819418686838
42
-0.41421356237309648
10
-42.838642597066645
20
18.838537936248652
10
-43.029984313249194
20
18.376598169993013
42
-0.41421356237309448
10
-43.683265795687376
20
18.106000119919909
10
-46.454904393221206
20
19.254050417015179
42
-0.41421356237309792
10
-46.725502443294317
20
19.907331899453368
0
LWPOLYLINE
5
105
100
AcDbEntity
8
0
100
AcDbPolyline
90
8
70
1
43
0.0
10
-42.551145366061121
20
26.15469875666404
42
-0.41421356237309509
10
-41.844038584874575
20
26.15469875666404
10
-39.722718241314951
20
24.033378413104401
42
-0.41421356237309132
10
-39.722718241314958
20
23.326271631917859
10
-40.076271631908227
20
22.972718241324582
42
-0.41421356237308954
10
-40.783378413094766
20
22.972718241324586
10
-42.904698756654398
20
25.09403858488422
42
-0.41421356237309509
10
-42.904698756654398
20
25.801145366070767
0
LWPOLYLINE
5
106
100
AcDbEntity
8
0
100
AcDbPolyline
90
8
70
1
43
0.0
10
-36.657331899443733
20
29.975502443303974
42
-0.41421356237309509
10
-36.004050417005544
20
29.704904393230876
10
-34.856000119910291
20
26.933265795697018
42
-0.41421356237309409
10
-35.126598169983382
20
26.279984313258833
10
-35.588537936239028
20
26.088642597076294
42
-0.4142135623730917
10
-36.24181941867721
20
26.359240647149388
10
-37.38986971577247
20
29.130879244683243
42
-0.41421356237309409
10
-37.119271665699372
20
29.784160727121428
0
LWPOLYLINE
5
107
100
AcDbEntity
8
0
100
AcDbPolyline
90
8
70
1
43
0.0
10
-29.749999999999979
20
31.250000000009528
42
-0.41421356237309509
10
-29.249999999999979
20
30.750000000009532
10
-29.249999999999986
20
27.750000000009543
42
-0.41421356237309509
10
-29.749999999999982
20
27.250000000009543
10
-30.249999999999982
20
27.250000000009543
42
-0.41421356237309509
10
-30.749999999999979
20
27.750000000009543
10
-30.749999999999975
20
30.750000000009532
42
-0.41421356237309509
10
-30.249999999999979
20
31.250000000009528
0
LWPOLYLINE
5
108
100
AcDbEntity
8
0
100
AcDbPolyline
90
8
70
1
43
0.0
10
-22.880728334300589
20
29.784160727121424
42
-0.41421356237309509
10
-22.610130284227491
20
29.130879244683236
10
-23.758180581322755
20
26.359240647149388
42
-0.41421356237309509
10
-24.411462063760943
20
26.088642597076294
10
-24.873401830016583
20
26.279984313258833
42
-0.41421356237309509
10
-25.14399988008968
20
26.933265795697018
10
-23.995949582994417
20
29.704904393230869
42
-0.41421356237309509
10
-23.342668100556232
20
29.975502443303967
0
LWPOLYLINE
5
109
100
AcDbEntity
8
0
100
AcDbPolyline
90
8
70
1
43
0.0
10
-17.095301243345581
20
25.801145366070763
42
-0.41421356237309592
10
-17.095301243345585
20
25.09403858488422
10
-19.216621586905212
20
22.972718241324582
42
-0.41421356237308954
10
-19.923728368091751
20
22.972718241324586
10
-20.277281758685028
20
23.326271631917859
42
-0.41421356237309509
10
-20.277281758685021
20
24.033378413104405
10
-18.155961415125393
20
26.154698756664043
42
-0.41421356237309226
10
-17.448854633938851
20
26.15469875666404
0
LWPOLYLINE
5
110
100
AcDbEntity
8
0
100
AcDbPolyline
90
8
70
1
43
0.0
10
-13.274497556705672
20
19.907331899453357
42
-0.41421356237309631
10
-13.545095606778773
20
19.254050417015172
10
-16.31673420431261
20
18.106000119919905
42
-0.41421356237309209
10
-16.970015686750795
20
18.376598169993002
10
-17.161357402933337
20
18.838537936248645
42
-0.41421356237309792
10
-16.89075935286024
20
19.491819418686831
10
-14.119120755326398
20
20.639869715782098
42
-0.41421356237309387
10
-13.465839272888214
20
20.369271665709
0
LWPOLYLINE
5
111
100
AcDbEntity
8
0
100
AcDbPolyline
90
8
70
1
43
0.0
10
-12.000000000000119
20
13.000000000009582
42
-0.41421356237309509
10
-12.500000000000117
20
12.500000000009583
10
-15.500000000000096
20
12.500000000009585
42
-0.41421356237309637
10
-16.000000000000092
20
13.000000000009582
10
-16.000000000000096
20
13.50000000000958
42
-0.41421356237309509
10
-15.500000000000098
20
14.000000000009578
10
-12.500000000000121
20
14.000000000009578
42
-0.41421356237309637
10
-12.000000000000121
20
13.500000000009582
0
LWPOLYLINE
5
112
100
AcDbEntity
8
0
100
AcDbPolyline
90
8
70
1
43
0.0
10
-13.465839272888232
20
6.1307283343101604
42
-0.41421356237309426
10
-14.119120755326417
20
5.8601302842370639
10
-16.890759352860258
20
7.008180581332331
42
-0.41421356237309676
10
-17.161357402933351
20
7.661462063770518
10
-16.970015686750809
20
8.1234018300261592
42
-0.4142135623730942
10
-16.31673420431262
20
8.3939998800992548
10
-13.545095606778785
20
7.2459495830039913
42
-0.41421356237309587
10
-13.27449755670569
20
6.5926681005658025
0
LWPOLYLINE
5
113
100
AcDbEntity
8
0
100
AcDbPolyline
90
8
70
1
43
0.0
10
-17.448854633938883
20
0.3453012433551253
42
-0.41421356237309337
10
-18.155961415125425
20
0.34530124335512113
10
-20.277281758685053
20
2.4666215869147594
42
-0.4142135623730947
10
-20.277281758685053
20
3.1737283681013051
10
-19.923728368091776
20
3.5272817586945795
42
-0.41421356237309043
10
-19.216621586905241
20
3.5272817586945804
10
-17.09530124334561
20
1.4059614151349384
42
-0.41421356237309576
10
-17.095301243345617
20
0.69885463394839453
0
LWPOLYLINE
5
114
100
AcDbEntity
8
0
100
AcDbPolyline
90
8
70
1
43
0.0
10
-23.342668100556271
20
-3.4755024432848085
42
-0.41421356237309453
10
-23.995949582994456
20
-3.2049043932117121
10
-25.143999880089716
20
-0.43326579567786044
42
-0.41421356237309553
10
-24.873401830016618
20
0.22001568676032754
10
-24.411462063760972
20
0.41135740294287126
42
-0.41421356237309165
10
-23.75818058132279
20
0.1407593528697737
10
-22.61013028422753
20
-2.6308792446640785
42
-0.41421356237309553
10
-22.880728334300628
20
-3.2841607271022664
0
LWPOLYLINE
5
115
100
AcDbEntity
8
0
100
AcDbPolyline
90
8
70
1
43
0.0
10
-30.250000000000021
20
-4.749999999990373
42
-0.4142135623730947
10
-30.750000000000021
20
-4.2499999999903757
10
-30.750000000000014
20
-1.2499999999903844
42
-0.4142135623730957
10
-30.250000000000018
20
-0.74999999999038447
10
-29.750000000000018
20
-0.74999999999038502
42
-0.41421356237309442
10
-29.250000000000021
20
-1.2499999999903821
10
-29.250000000000025
20
-4.2499999999903739
42
-0.4142135623730957
10
-29.750000000000021
20
-4.7499999999903739
0
CIRCLE
5
116
100
AcDbEntity
8
0
100
AcDbCircle
10
-30
20
13.250000000009582
30
0
40
1.4999999999999967
210
5.2386188317807405e-48
220
-4.3140830754274083e-32
230
1
0
LINE
5
117
100
AcDbEntity
8
0
100
AcDbLine
10
-33.606504122137096
20
-7.4440360494662849
30
0
11
-33.410194295030799
21
-6.4571199029629849
31
0
0
ARC
5
118
100
AcDbEntity
8
0
100
AcDbCircle
10
-30
20
13.250000000009582
30
0
40
19.99999999999995
210
0
220
0
230
1
100
AcDbArc
50
260.18254373756679
51
268.56745626243378
0
LINE
5
119
100
AcDbEntity
8
0
100
AcDbLine
10
-30.499999999999904
20
-6.7437490231225761
30
0
11
-30.500000000000025
21
-7.7499999999903491
31
2.311115933264683e-32
0
ARC
5
120
100
AcDbEntity
8
0
100
AcDbCircle
10
-30.000000000000028
20
-7.7499999999903668
30
0
40
0.49999999999999822
210
4.6222318665291854e-32
220
-5.5466782398367566e-32
230
1
100
AcDbArc
50
180
51
360
0
LINE
5
121
100
AcDbEntity
8
0
100
AcDbLine
10
-29.500000000000028
20
-7.7499999999903846
30
1.972152263052507e-31
11
-29.499999999999918
21
-6.7437490231225734
31
1.5407439555097887e-32
0
ARC
5
122
100
AcDbEntity
8
0
100
AcDbCircle
10
-30
20
13.250000000009582
30
0
40
19.99999999999995
210
-3.9432643312818849e-31
220
-9.0906301163800297e-33
230
1
100
AcDbArc
50
271.43254373756673
51
279.81745626243367
0
LINE
5
123
100
AcDbEntity
8
0
100
AcDbLine
10
-26.589805704969073
20
-6.457119902962952
30
1.7480113595263485e-31
11
-26.393495877862975
21
-7.4440360494662539
31
0
0
ARC
5
124
100
AcDbEntity
8
0
100
AcDbCircle
10
-25.903103237661359
20
-7.3464908884582059
30
0
40
0.49999999999999944
210
1.6445501707598284e-46
220
-8.2677120202446044e-46
230
1
100
AcDbArc
50
-168.75000000000185
51
11.249999999998277
0
LINE
5
125
100
AcDbEntity
8
0
100
AcDbLine
10
-25.412710597459743
20
-7.248945727450157
30
-1.9721522630525183e-31
11
-25.60902042456582
21
-6.2620295809468125
31
0
0
ARC
5
126
100
AcDbEntity
8
0
100
AcDbCircle
10
-30
20
13.250000000009582
30
0
40
19.999999999999936
210
-3.8480693294831139e-31
220
-8.6596803067099777e-32
230
1
100
AcDbArc
50
282.68254373756673
51
291.06745626243355
0
LINE
5
127
100
AcDbEntity
8
0
100
AcDbLine
10
-22.810663264237263
20
-5.4131572168122721
30
-8.0073459720078146e-31
11
-22.425587686588841
21
-6.3428118989099191
31
0
0
ARC
5
128
100
AcDbEntity
8
0
100
AcDbCircle
10
-21.963647920333194
20
-6.1514701827273921
30
0
40
0.49999999999999534
210
0
220
0
230
1
100
AcDbArc
50
-157.50000000000205
51
22.499999999998241
0
LINE
5
129
100
AcDbEntity
8
0
100
AcDbLine
10
-21.501708154077548
20
-5.9601284665448624
30
0
11
-21.886783731725934
21
-5.0304737844471621
31
0
0
ARC
5
130
100
AcDbEntity
8
0
100
AcDbCircle
10
-30
20
13.250000000009582
30
0
40
19.999999999999929
210
-7.1045483934826074e-46
220
-3.1531314934382822e-46
230
1
100
AcDbArc
50
293.93254373756668
51
302.31745626243344
0
LINE
5
131
100
AcDbEntity
8
0
100
AcDbLine
10
-19.307803002434326
20
-3.6519798652382844
30
3.9021429326136389e-30
11
-18.748759912739736
21
-4.4886469748536122
31
0
0
ARC
5
132
100
AcDbEntity
8
0
100
AcDbCircle
10
-18.333025106588458
20
-4.2108618583438258
30
0
40
0.49999999999999567
210
-1.0956690923342112e-31
220
1.6397846775619584e-31
230
1
100
AcDbArc
50
-146.25000000000173
51
33.749999999998387
0
LINE
5
133
100
AcDbEntity
8
0
100
AcDbLine
10
-17.91729030043718
20
-3.933076741834038
30
3.9443045261050398e-31
11
-18.476333390131728
21
-3.0964096322186396
31
2.4651903288156619e-31
0
ARC
5
134
100
AcDbEntity
8
0
100
AcDbCircle
10
-30
20
13.250000000009582
30
0
40
19.999999999999911
210
-7.1020078697858707e-33
220
1.0074252734057138e-32
230
1
100
AcDbArc
50
305.18254373756668
51
313.56745626243338
0
LINE
5
135
100
AcDbEntity
8
0
100
AcDbLine
10
-16.21583787499468
20
-1.2412689061823357
30
0
11
-15.504310985675902
21
-1.9527957955011324
31
0
0
ARC
5
136
100
AcDbEntity
8
0
100
AcDbCircle
10
-15.15075759508262
20
-1.5992424049078768
30
0
40
0.49999999999999295
210
2.789044477473575e-31
220
-2.789044477473783e-31
230
1
100
AcDbArc
50
-135.00000000000216
51
44.999999999998252
0
LINE
5
137
100
AcDbEntity
8
0
100
AcDbLine
10
-14.797204204489338
20
-1.2456890143146164
30
-6.5927384510863176e-45
11
-15.508731093808073
21
-0.53416212499571825
31
0
0
ARC
5
138
100
AcDbEntity
8
0
100
AcDbCircle
10
-30
20
13.250000000009582
30
0
40
19.99999999999989
210
-1.1015999538261923e-45
220
-1.1581103742958063e-45
230
1
100
AcDbArc
50
316.43254373756668
51
324.8174562624335
0
LINE
5
139
100
AcDbEntity
8
0
100
AcDbLine
10
-13.653590367771766
20
1.7263333901413747
30
7.8042858652272652e-30
11
-12.816923258156498
21
1.1672903004467032
31
0
0
ARC
5
140
100
AcDbEntity
8
0
100
AcDbCircle
10
-12.53913814164668
20
1.5830251065979661
30
0
40
0.50000000000000178
210
3.2795693551236607e-31
220
-2.1913381846685919e-31
230
1
100
AcDbArc
50
-123.75000000000229
51
56.249999999998337
0
LINE
5
141
100
AcDbEntity
8
0
100
AcDbLine
10
-12.261353025136867
20
1.9987599127492304
30
-5.8920892189239302e-45
11
-13.09802013475214
21
2.5578030024439729
31
0
0
ARC
5
142
100
AcDbEntity
8
0
100
AcDbCircle
10
-30
20
13.250000000009582
30
0
40
19.999999999999879
210
-0
220
0
230
1
100
AcDbArc
50
327.68254373756668
51
336.0674562624335
0
LINE
5
143
100
AcDbEntity
8
0
100
AcDbLine
10
-11.719526215543288
20
5.1367837317355969
30
0
11
-10.78987153344568
21
4.7517081540870816
31
0
0
ARC
5
144
100
AcDbEntity
8
0
100
AcDbCircle
10
-10.59852981726312
20
5.2136479203427157
30
0
40
0.49999999999999678
210
2.0228608908268384e-47
220
-8.3789641577468303e-48
230
1
100
AcDbArc
50
-112.500000000002
51
67.499999999998082
0
LINE
5
145
100
AcDbEntity
8
0
100
AcDbLine
10
-10.40718810108056
20
5.6755876865983517
30
9.8607613152626235e-32
11
-11.336842783178172
21
6.0606632642469531
31
0
0
ARC
5
146
100
AcDbEntity
8
0
100
AcDbCircle
10
-30
20
13.250000000009582
30
0
40
19.999999999999865
210
-2.6760142338242162e-46
220
-6.9467985985241984e-46
230
1
100
AcDbArc
50
338.93254373756673
51
347.31745626243367
0
LINE
5
147
100
AcDbEntity
8
0
100
AcDbLine
10
-10.487970419043647
20
8.8590204245755437
30
7.8042858652272526e-30
11
-9.5010542725403884
21
8.6627105974692888
31
0
0
ARC
5
148
100
AcDbEntity
8
0
100
AcDbCircle
10
-9.4035091115323013
20
9.1531032376708978
30
0
40
0.49999999999999922
210
-7.8382204867252848e-46
220
1.5591189930586233e-46
230
1
100
AcDbArc
50
-101.2500000000027
51
78.749999999997925
0
LINE
5
149
100
AcDbEntity
8
0
100
AcDbLine
10
-9.3059639505242195
20
9.6434958778725086
30
-9.860761315262629e-32
11
-10.292880097027515
21
9.8398057049788044
31
0
0
ARC
5
150
100
AcDbEntity
8
0
100
AcDbCircle
10
-30
20
13.250000000009582
30
0
40
19.999999999999865
210
2.2400156384418335e-47
220
1.2944792276390892e-46
230
1
100
AcDbArc
50
350.18254373756685
51
358.56745626243384
0
LINE
5
151
100
AcDbEntity
8
0
100
AcDbLine
10
-10.006250976867921
20
12.750000000009686
30
-7.8042858652272512e-30
11
-9.0000000000001599
21
12.75000000000958
31
0
0
ARC
5
152
100
AcDbEntity
8
0
100
AcDbCircle
10
-9.0000000000001421
20
13.250000000009578
30
0
40
0.49999999999999822
210
-3.9443045261050393e-31
220
1.4012984643248151e-44
230
1
100
AcDbArc
50
-90.000000000002032
51
89.999999999997556
0
LINE
5
153
100
AcDbEntity
8
0
100
AcDbLine
10
-9.0000000000001208
20
13.750000000009576
30
2.7733391199183684e-32
11
-10.00625097686793
21
13.75000000000969
31
0
0
ARC
5
154
100
AcDbEntity
8
0
100
AcDbCircle
10
-30
20
13.250000000009582
30
0
40
19.999999999999869
210
1.8488927466121466e-33
220
-7.3932595092889e-32
230
1
100
AcDbArc
50
1.4325437375669314
51
9.817456262433943
0
LINE
5
155
100
AcDbEntity
8
0
100
AcDbLine
10
-10.292880097027554
20
16.660194295040615
30
8.0199740281846384e-30
11
-9.3059639505242426
21
16.856504122146642
31
0
0
ARC
5
156
100
AcDbEntity
8
0
100
AcDbCircle
10
-9.4035091115322889
20
17.346896762348262
30
0
40
0.499999999999999
210
-3.8685158206317097e-31
220
-7.694956401273649e-32
230
1
100
AcDbArc
50
-78.750000000002117
51
101.24999999999837
0
LINE
5
157
100
AcDbEntity
8
0
100
AcDbLine
10
-9.5010542725403386
20
17.837289402549878
30
-1.1144031027001228e-45
11
-10.487970419043682
21
17.640979575443801
31
0
0
ARC
5
158
100
AcDbEntity
8
0
100
AcDbCircle
10
-30
20
13.250000000009582
30
0
40
19.999999999999872
210
0
220
-0
230
1
100
AcDbArc
50
12.682543737566842
51
21.067456262434028
0
LINE
5
159
100
AcDbEntity
8
0
100
AcDbLine
10
-11.336842783178252
20
20.439336735772471
30
0
11
-10.407188101080575
21
20.82441231342079
31
0
0
ARC
5
160
100
AcDbEntity
8
0
100
AcDbCircle
10
-10.598529817263101
20
21.28635207967644
30
0
40
0.49999999999999856
210
-0
220
0
230
1
100
AcDbArc
50
-67.500000000002274
51
112.49999999999736
0
LINE
5
161
100
AcDbEntity
8
0
100
AcDbLine
10
-10.789871533445623
20
21.748291845932091
30
0
11
-11.719526215543324
21
21.36321626828369
31
0
0
ARC
5
162
100
AcDbEntity
8
0
100
AcDbCircle
10
-30
20
13.250000000009582
30
0
40
19.999999999999886
210
0
220
-0
230
1
100
AcDbArc
50
23.932543737566874
51
32.317456262434099
0
LINE
5
163
100
AcDbEntity
8
0
100
AcDbLine
10
-13.098020134752268
20
23.94219699757544
30
0
11
-12.261353025136867
21
24.501240087269913
31
0
0
ARC
5
164
100
AcDbEntity
8
0
100
AcDbCircle
10
-12.539138141646649
20
24.916974893421191
30
0
40
0.49999999999999323
210
-6.5591387102476726e-31
220
-4.3826763693366679e-31
230
1
100
AcDbArc
50
-56.250000000002046
51
123.74999999999736
0
LINE
5
165
100
AcDbEntity
8
0
100
AcDbLine
10
-12.816923258156429
20
25.332709699572472
30
-9.8607613152624363e-32
11
-13.653590367771834
21
24.773666609877914
31
0
0
ARC
5
166
100
AcDbEntity
8
0
100
AcDbCircle
10
-30
20
13.250000000009582
30
0
40
19.999999999999904
210
0
220
-0
230
1
100
AcDbArc
50
35.182543737566903
51
43.567456262434114
0
LINE
5
167
100
AcDbEntity
8
0
100
AcDbLine
10
-15.508731093808246
20
27.034162125015101
30
0
11
-14.79720420448932
21
27.745689014333756
31
0
0
ARC
5
168
100
AcDbEntity
8
0
100
AcDbCircle
10
-15.150757595082583
20
28.09924240492704
30
0
40
0.50000000000000056
210
-0
220
0
230
1
100
AcDbArc
50
-45.000000000001727
51
134.99999999999741
0
LINE
5
169
100
AcDbEntity
8
0
100
AcDbLine
10
-15.504310985675838
20
28.452795795520327
30
0
11
-16.21583787499473
21
27.74126890620159
31
0
0
ARC
5
170
100
AcDbEntity
8
0
100
AcDbCircle
10
-30
20
13.250000000009582
30
0
40
19.999999999999929
210
-2.8578988767849549e-31
220
2.7184466529112323e-31
230
1
100
AcDbArc
50
46.432543737566888
51
54.817456262434114
0
LINE
5
171
100
AcDbEntity
8
0
100
AcDbLine
10
-18.476333390131938
20
29.596409632237979
30
6.6539489961211729e-30
11
-17.917290300437156
21
30.433076741853178
31
0
0
ARC
5
172
100
AcDbEntity
8
0
100
AcDbCircle
10
-18.333025106588416
20
30.710861858362996
30
0
40
0.49999999999999634
210
-1.095669092334299e-31
220
-1.6397846775618279e-31
230
1
100
AcDbArc
50
-33.75000000000243
51
146.24999999999824
0
LINE
5
173
100
AcDbEntity
8
0
100
AcDbLine
10
-18.748759912739676
20
30.988646974872808
30
3.4217029816826816e-45
11
-19.307803002434419
21
30.151979865257537
31
0
0
ARC
5
174
100
AcDbEntity
8
0
100
AcDbCircle
10
-30
20
13.250000000009582
30
0
40
19.999999999999943
210
-3.3333277841317202e-31
220
2.108664050575252e-31
230
1
100
AcDbArc
50
57.682543737566917
51
66.067456262434021
0
LINE
5
175
100
AcDbEntity
8
0
100
AcDbLine
10
-21.886783731726158
20
31.530473784466437
30
2.7518060635075547e-30
11
-21.501708154077509
21
32.460128466563994
31
0
0
ARC
5
176
100
AcDbEntity
8
0
100
AcDbCircle
10
-21.963647920333145
20
32.65147018274655
30
0
40
0.50000000000000067
210
-7.5470999717158996e-32
220
-1.8220311108300185e-31
230
1
100
AcDbArc
50
-22.500000000001553
51
157.49999999999758
0
LINE
5
177
100
AcDbEntity
8
0
100
AcDbLine
10
-22.425587686588777
20
32.842811898929114
30
2.2499085994169834e-46
11
-22.810663264237377
21
31.913157216831497
31
0
0
ARC
5
178
100
AcDbEntity
8
0
100
AcDbCircle
10
-30
20
13.250000000009582
30
0
40
19.999999999999947
210
-3.6806587740860576e-31
220
1.4178466713280974e-31
230
1
100
AcDbArc
50
68.932543737566832
51
77.317456262433865
0
LINE
5
179
100
AcDbEntity
8
0
100
AcDbLine
10
-25.609020424566012
20
32.762029580966029
30
-1.1503368691060711e-30
11
-25.412710597459697
21
33.748945727469277
31
0
0
ARC
5
180
100
AcDbEntity
8
0
100
AcDbCircle
10
-25.903103237661306
20
33.846490888477362
30
0
40
0.49999999999999767
210
1.9237391003191665e-32
220
9.6712895515791495e-32
230
1
100
AcDbArc
50
-11.250000000002506
51
168.74999999999827
0
LINE
5
181
100
AcDbEntity
8
0
100
AcDbLine
10
-26.393495877862915
20
33.94403604948544
30
1.9721522630525162e-31
11
-26.589805704969205
21
32.957119902982143
31
0
0
ARC
5
182
100
AcDbEntity
8
0
100
AcDbCircle
10
-30
20
13.250000000009582
30
0
40
19.999999999999947
210
0
220
-0
230
1
100
AcDbArc
50
80.182543737566775
51
88.567456262433751
0
LINE
5
183
100
AcDbEntity
8
0
100
AcDbLine
10
-29.500000000000092
20
33.243749023141731
30
0
11
-29.499999999999975
21
34.250000000009507
31
-3.0814879110195774e-32
0
ARC
5
184
100
AcDbEntity
8
0
100
AcDbCircle
10
-29.999999999999972
20
34.250000000009528
30
0
40
0.49999999999999822
210
6.1629758220389303e-32
220
-5.5466782398372164e-32
230
1
100
AcDbArc
50
0
51
180
0
LINE
5
185
100
AcDbEntity
8
0
100
AcDbLine
10
-30.499999999999972
20
34.25000000000955
30
-1.972152263052507e-31
11
-30.500000000000085
21
33.243749023141731
31
-3.0814879110195774e-32
0
ARC
5
186
100
AcDbEntity
8
0
100
AcDbCircle
10
-30
20
13.250000000009582
30
0
40
19.99999999999995
210
-3.9434569242763265e-31
220
-8.320498917495854e-33
230
1
100
AcDbArc
50
91.432543737566746
51
99.817456262433609
0
LINE
5
187
100
AcDbEntity
8
0
100
AcDbLine
10
-33.410194295030927
20
32.957119902982114
30
-2.1258726022594575e-30
11
-33.606504122137025
21
33.944036049485419
31
-1.2325951644078309e-31
0
ARC
5
188
100
AcDbEntity
8
0
100
AcDbCircle
10
-34.096896762338645
20
33.846490888477369
30
0
40
0.49999999999999944
210
2.6101962979266653e-31
220
-4.8619418007831262e-32
230
1
100
AcDbArc
50
11.249999999998277
51
191.24999999999829
0
LINE
5
189
100
AcDbEntity
8
0
100
AcDbLine
10
-34.587289402540264
20
33.748945727469319
30
-1.2835274358497828e-46
11
-34.390979575434187
21
32.762029580965979
31
0
0
ARC
5
190
100
AcDbEntity
8
0
100
AcDbCircle
10
-30
20
13.250000000009582
30
0
40
19.99999999999994
210
-3.8480693294831165e-31
220
-8.6596803067099909e-32
230
1
100
AcDbArc
50
102.68254373756672
51
111.06745626243351
0
LINE
5
191
100
AcDbEntity
8
0
100
AcDbLine
10
-37.18933673576273
20
31.913157216831436
30
-1.1503368691060373e-30
11
-37.574412313411159
21
32.842811898929078
31
2.4651903288156619e-31
0
ARC
5
192
100
AcDbEntity
8
0
100
AcDbCircle
10
-38.036352079666806
20
32.65147018274655
30
0
40
0.49999999999999367
210
-4.5550777770752574e-31
220
-1.886774992928632e-31
230
1
100
AcDbArc
50
22.49999999999806
51
202.49999999999807
0
LINE
5
193
100
AcDbEntity
8
0
100
AcDbLine
10
-38.498291845922452
20
32.460128466564022
30
0
11
-38.113216268274059
21
31.530473784466324
31
0
0
ARC
5
194
100
AcDbEntity
8
0
100
AcDbCircle
10
-30
20
13.250000000009582
30
0
40
19.999999999999925
210
-3.6051877743689006e-31
220
-1.6000497824111379e-31
230
1
100
AcDbArc
50
113.93254373756668
51
122.31745626243338
0
LINE
5
195
100
AcDbEntity
8
0
100
AcDbLine
10
-40.692196997565652
20
30.151979865257456
30
-5.0524798017196611e-30
11
-41.251240087260264
21
30.988646974872776
31
0
0
ARC
5
196
100
AcDbEntity
8
0
100
AcDbCircle
10
-41.666974893411542
20
30.710861858362989
30
0
40
0.49999999999999567
210
-1.0956690923342112e-31
220
1.6397846775619584e-31
230
1
100
AcDbArc
50
33.749999999998273
51
213.74999999999861
0
LINE
5
197
100
AcDbEntity
8
0
100
AcDbLine
10
-42.08270969956282
20
30.433076741853199
30
-3.944304526105038e-31
11
-41.523666609868279
21
29.596409632237805
31
-2.4651903288156619e-31
0
ARC
5
198
100
AcDbEntity
8
0
100
AcDbCircle
10
-30
20
13.250000000009582
30
0
40
19.999999999999918
210
-3.2947809535961282e-31
220
-2.1718999909908977e-31
230
1
100
AcDbArc
50
125.18254373756669
51
133.56745626243344
0
LINE
5
199
100
AcDbEntity
8
0
100
AcDbLine
10
-43.784162125005324
20
27.741268906201491
30
-1.1503368691060291e-30
11
-44.4956890143241
21
28.452795795520295
31
0
0
ARC
5
200
100
AcDbEntity
8
0
100
AcDbCircle
10
-44.849242404917376
20
28.099242404927036
30
0
40
0.49999999999999589
210
2.789044477473592e-31
220
-2.7890444774737672e-31
230
1
100
AcDbArc
50
44.99999999999855
51
224.99999999999798
0
LINE
5
201
100
AcDbEntity
8
0
100
AcDbLine
10
-45.20279579551066
20
27.745689014333777
30
6.9430630671675194e-45
11
-44.49126890619192
21
27.034162125014877
31
0
0
ARC
5
202
100
AcDbEntity
8
0
100
AcDbCircle
10
-30
20
13.250000000009582
30
0
40
19.999999999999886
210
-1.1166903641525784e-45
220
-1.173974899971091e-45
230
1
100
AcDbArc
50
136.43254373756668
51
144.8174562624335
0
LINE
5
203
100
AcDbEntity
8
0
100
AcDbLine
10
-46.34640963222823
20
24.773666609877786
30
-7.8042858652272652e-30
11
-47.183076741843514
21
25.332709699572465
31
0
0
ARC
5
204
100
AcDbEntity
8
0
100
AcDbCircle
10
-47.460861858353326
20
24.916974893421198
30
0
40
0.50000000000000178
210
3.2795693551236721e-31
220
-2.1913381846685739e-31
230
1
100
AcDbArc
50
56.249999999998678
51
236.24999999999844
0
LINE
5
205
100
AcDbEntity
8
0
100
AcDbLine
10
-47.738646974863137
20
24.501240087269935
30
5.7169269108833281e-45
11
-46.901979865247867
21
23.942196997575188
31
0
0
ARC
5
206
100
AcDbEntity
8
0
100
AcDbCircle
10
-30
20
13.250000000009582
30
0
40
19.999999999999883
210
-1.0543320252876361e-31
220
-1.6666638920658631e-31
230
1
100
AcDbArc
50
147.6825437375667
51
156.0674562624335
0
LINE
5
207
100
AcDbEntity
8
0
100
AcDbLine
10
-48.28047378445671
20
21.363216268283569
30
-8.3794542997802749e-30
11
-49.210128466554323
21
21.748291845932091
31
0
0
ARC
5
208
100
AcDbEntity
8
0
100
AcDbCircle
10
-49.40147018273688
20
21.286352079676458
30
0
40
0.49999999999999489
210
3.6440622216600453e-31
220
-1.5094199943431628e-31
230
1
100
AcDbArc
50
67.499999999998295
51
247.49999999999847
0
LINE
5
209
100
AcDbEntity
8
0
100
AcDbLine
10
-49.592811898919436
20
20.824412313420822
30
5.892089218923919e-45
11
-48.66315721682183
21
20.439336735772216
31
0
0
ARC
5
210
100
AcDbEntity
8
0
100
AcDbCircle
10
-30
20
13.250000000009582
30
0
40
19.999999999999869
210
-2.2824827288500698e-46
220
-5.9252105693294642e-46
230
1
100
AcDbArc
50
158.93254373756673
51
167.31745626243364
0
LINE
5
211
100
AcDbEntity
8
0
100
AcDbLine
10
-49.512029580956352
20
17.64097957544363
30
-7.8042858652272526e-30
11
-50.498945727459621
21
17.837289402549882
31
0
0
ARC
5
212
100
AcDbEntity
8
0
100
AcDbCircle
10
-50.596490888467692
20
17.346896762348269
30
0
40
0.49999999999999817
210
-3.8685158206316541e-31
220
7.6949564012759195e-32
230
1
100
AcDbArc
50
78.749999999999162
51
258.74999999999665
0
LINE
5
213
100
AcDbEntity
8
0
100
AcDbLine
10
-50.694036049475784
20
16.85650412214666
30
4.9303806576309866e-32
11
-49.70711990297248
21
16.660194295040366
31
0
0
ARC
5
214
100
AcDbEntity
8
0
100
AcDbCircle
10
-30
20
13.250000000009582
30
0
40
19.999999999999865
210
0
220
0
230
1
100
AcDbArc
50
170.18254373756679
51
178.56745626243381
0
LINE
5
215
100
AcDbEntity
8
0
100
AcDbLine
10
-49.993749023132075
20
13.750000000009468
30
0
11
-50.999999999999844
21
13.750000000009582
31
0
0
ARC
5
216
100
AcDbEntity
8
0
100
AcDbCircle
10
-50.999999999999865
20
13.250000000009583
30
0
40
0.49999999999999822
210
-3.9443045261050393e-31
220
1.4012984643248151e-44
230
1
100
AcDbArc
50
89.999999999997556
51
269.99999999999835
0
LINE
5
217
100
AcDbEntity
8
0
100
AcDbLine
10
-50.999999999999879
20
12.750000000009585
30
-2.7733391199183159e-32
11
-49.993749023132068
21
12.750000000009472
31
0
0
ARC
5
218
100
AcDbEntity
8
0
100
AcDbCircle
10
-30
20
13.250000000009582
30
0
40
19.999999999999865
210
2.4651903288162012e-33
220
-9.8576793457185556e-32
230
1
100
AcDbArc
50
181.43254373756696
51
189.81745626243395
0
LINE
5
219
100
AcDbEntity
8
0
100
AcDbLine
10
-49.707119902972451
20
9.839805704978545
30
-8.0918700825037693e-30
11
-50.694036049475756
21
9.6434958778725122
31
0
0
ARC
5
220
100
AcDbEntity
8
0
100
AcDbCircle
10
-50.596490888467713
20
9.1531032376708943
30
0
40
0.49999999999999944
210
-3.8685158206317767e-31
220
-7.6949564012739566e-32
230
1
100
AcDbArc
50
101.24999999999753
51
281.24999999999841
0
LINE
5
221
100
AcDbEntity
8
0
100
AcDbLine
10
-50.498945727459663
20
8.6627105974692782
30
9.8607613152619108e-32
11
-49.512029580956316
21
8.8590204245753519
31
0
0
ARC
5
222
100
AcDbEntity
8
0
100
AcDbCircle
10
-30
20
13.250000000009582
30
0
40
19.999999999999872
210
-2.5958276448486999e-46
220
1.1534980958854307e-45
230
1
100
AcDbArc
50
192.68254373756687
51
201.06745626243409
0
LINE
5
223
100
AcDbEntity
8
0
100
AcDbLine
10
-48.663157216821737
20
6.0606632642466707
30
-7.8042858652272498e-30
11
-49.592811898919436
21
5.6755876865983623
31
0
0
ARC
5
224
100
AcDbEntity
8
0
100
AcDbCircle
10
-49.401470182736908
20
5.2136479203427113
30
0
40
0.50000000000000211
210
0
220
0
230
1
100
AcDbArc
50
112.49999999999787
51
292.4999999999979
0
LINE
5
225
100
AcDbEntity
8
0
100
AcDbLine
10
-49.21012846655438
20
4.7517081540870603
30
0
11
-48.280473784456682
21
5.1367837317354601
31
0
0
ARC
5
226
100
AcDbEntity
8
0
100
AcDbCircle
10
-30
20
13.250000000009582
30
0
40
19.999999999999897
210
-8.0002489120557441e-32
220
1.8025938871844435e-31
230
1
100
AcDbArc
50
203.9325437375669
51
212.31745626243406
0
LINE
5
227
100
AcDbEntity
8
0
100
AcDbLine
10
-46.901979865247732
20
2.5578030024437304
30
5.7516843455304282e-31
11
-47.738646974863137
21
1.9987599127492475
31
0
0
ARC
5
228
100
AcDbEntity
8
0
100
AcDbCircle
10
-47.460861858353354
20
1.5830251065979661
30
0
40
0.49999999999999611
210
-6.5591387102476989e-31
220
-4.382676369336646e-31
230
1
100
AcDbArc
50
123.74999999999773
51
303.74999999999682
0
LINE
5
229
100
AcDbEntity
8
0
100
AcDbLine
10
-47.183076741843578
20
1.1672903004466817
30
9.8607613152622961e-32
11
-46.346409632228173
21
1.7263333901412468
31
0
0
ARC
5
230
100
AcDbEntity
8
0
100
AcDbCircle
10
-30
20
13.250000000009582
30
0
40
19.999999999999908
210
0
220
0
230
1
100
AcDbArc
50
215.18254373756687
51
223.56745626243409
0
LINE
5
231
100
AcDbEntity
8
0
100
AcDbLine
10
-44.491268906191756
20
-0.53416212499593607
30
0
11
-45.202795795510688
21
-1.2456890143145931
31
0
0
ARC
5
232
100
AcDbEntity
8
0
100
AcDbCircle
10
-44.849242404917426
20
-1.5992424049078813
30
0
40
0.50000000000000333
210
0
220
0
230
1
100
AcDbArc
50
134.99999999999793
51
314.99999999999739
0
LINE
5
233
100
AcDbEntity
8
0
100
AcDbLine
10
-44.495689014324171
20
-1.9527957955011688
30
0
11
-43.784162125005267
21
-1.2412689061824285
31
0
0
ARC
5
234
100
AcDbEntity
8
0
100
AcDbCircle
10
-30
20
13.250000000009582
30
0
40
19.999999999999929
210
-2.8578988767849549e-31
220
2.7184466529112318e-31
230
1
100
AcDbArc
50
226.4325437375669
51
234.81745626243409
0
LINE
5
235
100
AcDbEntity
8
0
100
AcDbLine
10
-41.523666609868073
20
-3.096409632218815
30
-6.6539489961211729e-30
11
-42.082709699562848
21
-3.933076741834014
31
0
0
ARC
5
236
100
AcDbEntity
8
0
100
AcDbCircle
10
-41.666974893411599
20
-4.2108618583438311
30
0
40
0.49999999999999079
210
-1.0956690923343113e-31
220
-1.6397846775618198e-31
230
1
100
AcDbArc
50
146.24999999999702
51
326.2499999999979
0
LINE
5
237
100
AcDbEntity
8
0
100
AcDbLine
10
-41.251240087260335
20
-4.4886469748536477
30
-3.9471899058044874e-45
11
-40.692196997565588
21
-3.6519798652383706
31
0
0
ARC
5
238
100
AcDbEntity
8
0
100
AcDbCircle
10
-30
20
13.250000000009582
30
0
40
19.999999999999943
210
0
220
0
230
1
100
AcDbArc
50
237.68254373756685
51
246.06745626243401
0
LINE
5
239
100
AcDbEntity
8
0
100
AcDbLine
10
-38.113216268273852
20
-5.0304737844472749
30
0
11
-38.498291845922502
21
-5.9601284665448295
31
0
0
ARC
5
240
100
AcDbEntity
8
0
100
AcDbCircle
10
-38.036352079666869
20
-6.1514701827273877
30
0
40
0.49999999999999489
210
5.0608943512790444e-45
220
1.221807978059412e-44
230
1
100
AcDbArc
50
157.4999999999981
51
337.49999999999767
0
LINE
5
241
100
AcDbEntity
8
0
100
AcDbLine
10
-37.574412313411237
20
-6.3428118989099502
30
-1.972152263052517e-31
11
-37.189336735762637
21
-5.4131572168123299
31
0
0
ARC
5
242
100
AcDbEntity
8
0
100
AcDbCircle
10
-30
20
13.250000000009582
30
0
40
19.999999999999947
210
-3.6806587740860576e-31
220
1.4178466713281003e-31
230
1
100
AcDbArc
50
248.93254373756682
51
257.31745626243384
0
LINE
5
243
100
AcDbEntity
8
0
100
AcDbLine
10
-34.390979575433988
20
-6.2620295809468711
30
1.1503368691060748e-30
11
-34.587289402540307
21
-7.2489457274501241
31
0
0
ARC
5
244
100
AcDbEntity
8
0
100
AcDbCircle
10
-34.096896762338702
20
-7.3464908884582014
30
0
40
0.49999999999999634
210
1.9237391003190349e-32
220
9.6712895515791484e-32
230
1
100
AcDbArc
50
168.74999999999832
51
348.74999999999761
0
LWPOLYLINE
5
245
100
AcDbEntity
8
0
100
AcDbPolyline
90
8
70
1
43
0.0
10
-26.733570523810542
20
-4.4529076277525546
42
-0.41421356237309276
10
-27.321508325020218
20
-4.0600601485590051
10
-27.906779291068595
20
-1.117704307349322
42
-0.41421356237309837
10
-27.51393181187504
20
-0.52976650613964504
10
-27.023539171673434
20
-0.43222134513157956
42
-0.41421356237309281
10
-26.435601370463758
20
-0.82506882432512918
10
-25.850330404415377
20
-3.7674246655348109
42
-0.41421356237309886
10
-26.243177883608936
20
-4.3553624667444888
0
LWPOLYLINE
5
246
100
AcDbEntity
8
0
100
AcDbPolyline
90
8
70
1
43
0.0
10
-20.20760320872288
20
-1.8553455796910945
42
-0.4142135623730927
10
-20.901123131383947
20
-1.7173958900496262
10
-22.567833830442744
20
0.77701294685800548
42
-0.41421356237309592
10
-22.429884140801271
20
1.4705328695190785
10
-22.01414933465
20
1.7483179860288764
42
-0.41421356237309193
10
-21.320629411988932
20
1.6103682963874073
10
-19.653918712930135
20
-0.88404054052022163
42
-0.41421356237309637
10
-19.791868402571613
20
-1.5775604631812929
0
LWPOLYLINE
5
247
100
AcDbEntity
8
0
100
AcDbPolyline
90
8
70
1
43
0.0
10
-15.172439536809195
20
3.0418684025811311
42
-0.41421356237309365
10
-15.865959459470263
20
2.9039187129396566
10
-18.360368296377885
20
4.5706294119984605
42
-0.41421356237309592
10
-18.498317986019355
20
5.2641493346595327
10
-18.220532869509558
20
5.6798841408108034
42
-0.41421356237309215
10
-17.52701294684849
20
5.8178338304522761
10
-15.032604109940868
20
4.1511231313934713
42
-0.41421356237309592
10
-14.894654420299398
20
3.4576032087323991
0
LWPOLYLINE
5
248
100
AcDbEntity
8
0
100
AcDbPolyline
90
8
70
1
43
0.0
10
-12.394637533246007
20
9.4931778836184773
42
-0.41421356237309526
10
-12.982575334455683
20
9.1003304044249251
10
-15.924931175665353
20
9.6856013704733108
42
-0.41421356237309681
10
-16.317778654858902
20
10.273539171682986
10
-16.220233493850838
20
10.7639318118846
42
-0.41421356237309509
10
-15.632295692641161
20
11.156779291078148
10
-12.689939851431491
20
10.571508325029766
42
-0.41421356237309404
10
-12.297092372237945
20
9.9835705238200916
0
LWPOLYLINE
5
249
100
AcDbEntity
8
0
100
AcDbPolyline
90
8
70
1
43
0.0
10
-12.297092372237934
20
16.516429476199075
42
-0.41421356237309526
10
-12.689939851431484
20
15.928491674989399
10
-15.632295692641156
20
15.343220708941017
42
-0.41421356237309331
10
-16.220233493850831
20
15.736068188134562
10
-16.317778654858898
20
16.22646082833618
42
-0.41421356237309526
10
-15.924931175665346
20
16.814398629545856
10
-12.982575334455673
20
17.399669595594236
42
-0.41421356237309226
10
-12.394637533246
20
17.006822116400691
0
LWPOLYLINE
5
250
100
AcDbEntity
8
0
100
AcDbPolyline
90
8
70
1
43
0.0
10
-14.894654420299371
20
23.042396791286748
42
-0.41421356237309404
10
-15.032604109940849
20
22.348876868625677
10
-17.527012946848465
20
20.68216616956688
42
-0.41421356237309537
10
-18.220532869509537
20
20.820115859208354
10
-18.498317986019327
20
21.235850665359624
42
-0.41421356237309903
10
-18.360368296377857
20
21.929370588020699
10
-15.86595945947024
20
23.5960812870795
42
-0.41421356237309431
10
-15.17243953680917
20
23.458131597438022
0
LWPOLYLINE
5
251
100
AcDbEntity
8
0
100
AcDbPolyline
90
8
70
1
43
0.0
10
-19.791868402571573
20
28.077560463200459
42
-0.41421356237309648
10
-19.653918712930107
20
27.384040540539392
10
-21.320629411988904
20
24.88963170363176
42
-0.41421356237309148
10
-22.014149334649964
20
24.751682013990287
10
-22.429884140801239
20
25.029467130500084
42
-0.41421356237309859
10
-22.567833830442716
20
25.722987053161155
10
-20.901123131383912
20
28.217395890068783
42
-0.41421356237309076
10
-20.207603208722848
20
28.35534557971026
0
LWPOLYLINE
5
252
100
AcDbEntity
8
0
100
AcDbPolyline
90
8
70
1
43
0.0
10
-26.24317788360888
20
30.855362466763644
42
-0.41421356237309509
10
-25.850330404415335
20
30.267424665553968
10
-26.435601370463718
20
27.325068824344289
42
-0.41421356237309759
10
-27.023539171673399
20
26.932221345150737
10
-27.513931811875011
20
27.029766506158804
42
-0.41421356237309248
10
-27.906779291068556
20
27.617704307368484
10
-27.321508325020176
20
30.560060148578163
42
-0.41421356237309448
10
-26.733570523810496
20
30.952907627771712
0
LWPOLYLINE
5
253
100
AcDbEntity
8
0
100
AcDbPolyline
90
8
70
1
43
0.0
10
-33.266429476189465
20
30.952907627771712
42
-0.41421356237309248
10
-32.678491674979789
20
30.560060148578167
10
-32.093220708931412
20
27.617704307368484
42
-0.41421356237310014
10
-32.486068188124968
20
27.029766506158804
10
-32.976460828326573
20
26.932221345150737
42
-0.41421356237308998
10
-33.564398629536242
20
27.325068824344282
10
-34.149669595584619
20
30.267424665553971
42
-0.41421356237309759
10
-33.756822116391064
20
30.855362466763644
0
LWPOLYLINE
5
254
100
AcDbEntity
8
0
100
AcDbPolyline
90
8
70
1
43
0.0
10
-39.792396791277113
20
28.355345579710249
42
-0.41421356237309359
10
-39.098876868616045
20
28.217395890068779
10
-37.432166169557256
20
25.722987053161155
42
-0.41421356237309648
10
-37.570115859198729
20
25.029467130500084
10
-37.98585066535
20
24.75168201399029
42
-0.41421356237309359
10
-38.679370588011068
20
24.88963170363176
10
-40.346081287069858
20
27.384040540539388
42
-0.41421356237310086
10
-40.20813159742837
20
28.077560463200459
0
LWPOLYLINE
5
255
100
AcDbEntity
8
0
100
AcDbPolyline
90
8
70
1
43
0.0
10
-44.827560463190807
20
23.458131597438022
42
-0.41421356237309576
10
-44.134040540529739
20
23.5960812870795
10
-41.639631703622122
20
21.929370588020696
42
-0.41421356237309509
10
-41.501682013980655
20
21.235850665359628
10
-41.779467130490453
20
20.820115859208354
42
-0.41421356237309359
10
-42.47298705315152
20
20.68216616956688
10
-44.967395890059137
20
22.34887686862568
42
-0.41421356237309509
10
-45.105345579700611
20
23.042396791286748
0
LWPOLYLINE
5
256
100
AcDbEntity
8
0
100
AcDbPolyline
90
8
70
1
43
0.0
10
-47.605362466754002
20
17.006822116400695
42
-0.41421356237309448
10
-47.017424665544318
20
17.399669595594244
10
-44.07506882433465
20
16.814398629545856
42
-0.41421356237309426
10
-43.682221345141102
20
16.226460828336183
10
-43.779766506149173
20
15.736068188134567
42
-0.41421356237309448
10
-44.367704307358842
20
15.343220708941018
10
-47.310060148568517
20
15.928491674989404
42
-0.41421356237309404
10
-47.702907627762059
20
16.516429476199079
0
LWPOLYLINE
5
257
100
AcDbEntity
8
0
100
AcDbPolyline
90
8
70
1
43
0.0
10
-47.702907627762073
20
9.9835705238200827
42
-0.41421356237309553
10
-47.310060148568525
20
10.571508325029761
10
-44.367704307358842
20
11.156779291078145
42
-0.41421356237308971
10
-43.77976650614918
20
10.7639318118846
10
-43.682221345141102
20
10.273539171682986
42
-0.41421356237309437
10
-44.075068824334657
20
9.6856013704733055
10
-47.017424665544326
20
9.1003304044249251
42
-0.41421356237309515
10
-47.605362466754002
20
9.4931778836184701
0
LWPOLYLINE
5
258
100
AcDbEntity
8
0
100
AcDbPolyline
90
8
70
1
43
0.0
10
-45.105345579700625
20
3.4576032087324067
42
-0.41421356237309637
10
-44.967395890059159
20
4.1511231313934802
10
-42.472987053151535
20
5.8178338304522796
42
-0.4142135623730927
10
-41.779467130490467
20
5.6798841408108105
10
-41.501682013980677
20
5.2641493346595345
42
-0.41421356237309442
10
-41.63963170362215
20
4.5706294119984632
10
-44.13404054052976
20
2.9039187129396633
42
-0.41421356237309237
10
-44.827560463190835
20
3.0418684025811316
0
LWPOLYLINE
5
259
100
AcDbEntity
8
0
100
AcDbPolyline
90
8
70
1
43
0.0
10
-40.208131597428427
20
-1.5775604631812978
42
-0.41421356237309714
10
-40.346081287069893
20
-0.88404054052022452
10
-38.679370588011103
20
1.6103682963874042
42
-0.41421356237309448
10
-37.985850665350029
20
1.7483179860288776
10
-37.570115859198758
20
1.4705328695190769
42
-0.4142135623730977
10
-37.432166169557291
20
0.77701294685800337
10
-39.098876868616081
20
-1.7173958900496289
42
-0.41421356237309337
10
-39.792396791277156
20
-1.8553455796911009
0
LWPOLYLINE
5
260
100
AcDbEntity
8
0
100
AcDbPolyline
90
8
70
1
43
0.0
10
-33.75682211639112
20
-4.3553624667444852
42
-0.41421356237309415
10
-34.149669595584669
20
-3.7674246655348083
10
-33.564398629536285
20
-0.82506882432512685
42
-0.41421356237309565
10
-32.976460828326609
20
-0.43222134513157784
10
-32.486068188124989
20
-0.52976650613964404
42
-0.41421356237309442
10
-32.093220708931447
20
-1.1177043073493214
10
-32.678491674979831
20
-4.0600601485590015
42
-0.41421356237309642
10
-33.266429476189508
20
-4.4529076277525519
0
ENDSEC
0
SECTION
2
OBJECTS
0
DICTIONARY
5
C
100
AcDbDictionary
3
ACAD_GROUP
350
D
3
ACAD_MLINESTYLE
350
17
0
DICTIONARY
5
D
100
AcDbDictionary
0
DICTIONARY
5
1A
330
C
100
AcDbDictionary
0
DICTIONARY
5
17
100
AcDbDictionary
0
ENDSEC
0
EOF
