0
SECTION
2
HEADER
9
$INSUNITS
70
4
9
$ACADVER
1
AC1014
9
$HANDSEED
5
FFFF
0
ENDSEC
0
SECTION
2
TABLES
0
TABLE
2
VPORT
5
8
100
AcDbSymbolTable
0
ENDTAB
0
TABLE
2
LTYPE
5
5
100
AcDbSymbolTable
0
LTYPE
5
14
100
AcDbSymbolTableRecord
100
AcDbLinetypeTableRecord
2
BYBLOCK
70
0
0
LTYPE
5
15
100
AcDbSymbolTableRecord
100
AcDbLinetypeTableRecord
2
BYLAYER
70
0
0
LTYPE
5
16
100
AcDbSymbolTableRecord
100
AcDbLinetypeTableRecord
2
DASHED
70
0
3
Dashed __ __ __ __ __ __ __ __ __ __ __ __ __ _
72
65
73
2
40
0.75
49
0.5
74
0
49
-0.25
74
0
0
ENDTAB
0
TABLE
2
LAYER
5
2
100
AcDbSymbolTable
70
2
0
LAYER
5
50
100
AcDbSymbolTableRecord
100
AcDbLayerTableRecord
2
0
70
0
62
7
6
CONTINUOUS
0
ENDTAB
0
TABLE
2
STYLE
5
3
100
AcDbSymbolTable
70
1
0
STYLE
5
11
100
AcDbSymbolTableRecord
100
AcDbTextStyleTableRecord
2
STANDARD
70
0
0
ENDTAB
0
TABLE
2
VIEW
5
6
100
AcDbSymbolTable
70
0
0
ENDTAB
0
TABLE
2
UCS
5
7
100
AcDbSymbolTable
70
0
0
ENDTAB
0
TABLE
2
APPID
5
9
100
AcDbSymbolTable
70
2
0
APPID
5
12
100
AcDbSymbolTableRecord
100
AcDbRegAppTableRecord
2
ACAD
70
0
0
ENDTAB
0
TABLE
2
DIMSTYLE
5
A
100
AcDbSymbolTable
70
1
0
ENDTAB
0
TABLE
2
BLOCK_RECORD
5
1
100
AcDbSymbolTable
70
1
0
BLOCK_RECORD
5
1F
100
AcDbSymbolTableRecord
100
AcDbBlockTableRecord
2
*MODEL_SPACE
0
BLOCK_RECORD
5
1B
100
AcDbSymbolTableRecord
100
AcDbBlockTableRecord
2
*PAPER_SPACE
0
ENDTAB
0
ENDSEC
0
SECTION
2
BLOCKS
0
BLOCK
5
20
100
AcDbEntity
100
AcDbBlockBegin
2
*MODEL_SPACE
0
ENDBLK
5
21
100
AcDbEntity
100
AcDbBlockEnd
0
BLOCK
5
1C
100
AcDbEntity
100
AcDbBlockBegin
2
*PAPER_SPACE
0
ENDBLK
5
1D
100
AcDbEntity
100
AcDbBlockEnd
0
ENDSEC
0
SECTION
2
ENTITIES
0
LWPOLYLINE
5
100
100
AcDbEntity
8
0
100
AcDbPolyline
90
15
70
1
43
0.0
10
0.49999998882413105
20
33.489999996274712
10
49.99576600000001
20
33.490000000000002
10
49.99576600000001
20
35.611340781183998
10
48.886682000000008
20
36.720424781185997
10
48.886682000000008
20
35.826200999999998
10
49.149999999999999
20
35.562882999999999
10
49.149999999999999
20
34.49964700000001
10
48.510201999990002
20
33.859848999999997
10
45.504908630060001
20
33.859848999999997
10
44.364757630060005
20
35
10
22
20
35
10
22
20
34.990000000000009
10
12.853332031561632
20
34.990000000000009
10
8.8817841970012523e-15
20
43.989999999999981
10
-1.1175869039028904e-08
20
33.490000000000002
0
LWPOLYLINE
5
101
100
AcDbEntity
8
0
100
AcDbPolyline
90
33
70
1
43
0.0
10
-37
20
17.75
10
-14.460786437631068
20
17.75
10
-14.460786437631066
20
15.380686616414
10
-7.1193133835860012
20
15.380686616414
10
-0.29088625883900043
20
18.209113741161001
10
6.9388939039072284e-17
20
18.5
10
5.0000000000000089
20
18.499999999999996
42
1.4443905375690373
10
10.256713926410059
20
20.476674816937596
42
-0.6931033381285896
10
14.686835685020077
20
28.726183363196345
10
30.168931881259731
20
26.63610037671188
42
-0.37543490202530394
10
34.499999999999808
20
21.681049404397584
10
34.499999999999964
20
16.076656190588977
42
0.91176828992068204
10
39.076655688337482
20
11.500000000001016
10
40
20
11.500000000000998
10
40
20
-3.0000000000000027
10
31.940947000000005
20
-3.0000000000000018
10
31.940947000000005
20
-5.0000000000000009
10
49
20
-5.0000000000000009
10
49
20
-7.0000000000000018
10
50
20
-7.0000000000000018
10
50
20
-3.0000000000000018
10
42
20
-3.0000000000000018
10
42
20
14
10
50
20
14
10
50
20
25.000000000010001
10
3.7037037036030007
20
31.25
10
-2.2204460492503131e-15
20
31.25
10
8.0000000000000067e-17
20
24.000000000000004
10
-45.967133689325799
20
24.000000000000131
42
-0.076175316487653341
10
-43.247126626581021
20
17.749999999999989
10
-43
20
17.75
10
-43
20
23.499999999999996
10
-37
20
23.5
0
LWPOLYLINE
5
102
100
AcDbEntity
8
0
100
AcDbPolyline
90
32
70
1
43
0.0
10
-11.973575284335
20
19.750000217985995
10
-11.973575284795002
20
20.250000217985999
10
-11.873392605820964
20
20.250000218037307
42
-0.13075519349323736
10
-11.501465322639245
20
21.147912149962075
10
-11.572305162988002
20
21.218751990379999
10
-11.218751772624
20
21.572305381204
10
-11.147911936663206
20
21.501465545314417
42
-0.13075519546833289
10
-10.250000000050289
20
21.87339285425082
10
-10.250000000000002
20
21.973575504366998
10
-9.75
20
21.973575504366998
10
-9.7499999998865192
20
21.873392854242386
42
-0.13075519546609141
10
-8.8520880632993837
20
21.501465545285811
10
-8.7812482273659995
20
21.572305381213003
10
-8.4276948370029992
20
21.218751990390999
10
-8.4985346773218993
20
21.147912149911249
42
-0.13075519347607109
10
-8.1266073941874488
20
20.250000218100364
10
-8.0264247151920003
20
20.250000217986003
10
-8.0264247156520003
20
19.750000217985999
10
-8.1266074035553331
20
19.750000217936737
42
-0.13075519070002997
10
-8.4985347078035858
20
18.8520883164548
10
-8.4276948385980006
20
18.781248447178001
10
-8.7812482294209993
20
18.427695056813999
10
-8.8520881031559302
20
18.498534930478755
42
-0.13075518872493436
10
-9.7499999999497149
20
18.126607651985186
10
-9.75
20
18.026424935236996
10
-10.250000000000002
20
18.026424935236996
10
-10.250000000050285
20
18.126607651985186
42
-0.13075518872493436
10
-11.147911896844072
20
18.498534930478758
10
-11.218751770578002
20
18.427695056813999
10
-11.572305161401999
20
18.781248447178001
10
-11.501465292196411
20
18.852088316454797
42
-0.13075519070003089
10
-11.873392596444667
20
19.750000217936737
0
LWPOLYLINE
5
103
100
AcDbEntity
8
0
100
AcDbPolyline
90
32
70
1
43
0.0
10
6.0264247152110002
20
18.250000234739002
10
6.0264247147149996
20
18.750000234738998
10
6.1266073842082918
20
18.750000234790402
42
-0.13075519394251947
10
6.4985346693948802
20
19.647912174679981
10
6.4276948366170004
20
19.718752007527996
10
6.7812482269640011
20
20.072305398369998
10
6.8520880550109968
20
20.001465570393151
42
-0.13075519606951555
10
7.7499999999496563
20
20.373392883314256
10
7.75
20
20.473575521731
10
8.25
20
20.473575521731
10
8.2500000001135394
20
20.373392883305822
42
-0.13075519606756994
10
9.1479119450281647
20
20.001465570363216
10
9.2187517730459998
20
20.072305398379001
10
9.5723051633920004
20
19.718752007538001
10
9.5014653306438195
20
19.647912174629361
42
-0.13075519392538176
10
9.8733926157832883
20
18.750000234853509
10
9.9735752852970005
20
18.750000234738998
10
9.9735752848019992
20
18.250000234739002
10
9.8733926056948
20
18.250000234689715
42
-0.13075519093474991
10
9.5014652978221505
20
17.352088327581995
10
9.5723051616750006
20
17.281248463657995
10
9.2187517708330002
20
16.927695073312002
10
9.1479119021089801
20
16.998534941965879
42
-0.13075518880775314
10
8.2500000000503455
20
16.626607661827745
10
8.25
20
16.526424951657997
10
7.75
20
16.526424951657997
10
7.7499999999496563
20
16.626607661827745
42
-0.13075518880775314
10
6.8520880978910199
20
16.998534941965879
10
6.7812482291670007
20
16.927695073312002
10
6.4276948383250012
20
17.281248463657995
10
6.4985347021778486
20
17.352088327581995
42
-0.13075519093474969
10
6.1266073943051991
20
18.250000234689715
0
LWPOLYLINE
5
104
100
AcDbEntity
8
0
100
AcDbPolyline
90
32
70
1
43
0.0
10
35.026424706470003
20
13.750000207417997
10
35.026424706009998
20
14.250000207417999
10
35.12660691814736
20
14.250000207467725
42
-0.13075521097432014
10
35.498534345032198
20
15.147912486613679
10
35.427694834870003
20
15.218751996847999
10
35.781248225230001
20
15.572305387672998
10
35.852087730971824
20
15.501465881998451
42
-0.13075521296519721
10
36.750000014849782
20
15.873393334828329
10
36.750000014900003
20
15.973575517896998
10
37.25000001490001
20
15.973575517896998
10
37.250000015013427
20
15.873393334819895
42
-0.13075521296710352
10
38.147912298890091
20
15.501465881951118
10
38.21875180456
20
15.572305387682999
10
38.572305194919998
20
15.218751996858998
10
38.501465684800181
20
15.147912486571332
42
-0.13075521095841733
10
38.873393111644063
20
14.250000207532057
10
38.973575323779997
20
14.250000207417999
10
38.973575323320006
20
13.750000207417997
10
38.873393102210024
20
13.750000207367286
42
-0.1307552081633726
10
38.501465654100514
20
12.852087958867601
10
38.572305193310001
20
12.781248419584998
10
38.218751802490004
20
12.427695029223001
10
38.147912258714378
20
12.498534572927433
42
-0.13075520617187991
10
37.250000014950359
20
12.126607150765686
10
37.25000001490001
20
12.026424900597
10
36.750000014900003
20
12.026424900597
10
36.750000014849654
20
12.126607150765684
42
-0.1307552061744274
10
35.852087771070586
20
12.498534572938931
10
35.781248227290007
20
12.427695029223001
10
35.427694836470003
20
12.781248419583997
10
35.498534375690184
20
12.852087958879777
42
-0.13075520816148864
10
35.126606927589812
20
13.750000207368597
0
LWPOLYLINE
5
105
100
AcDbEntity
8
0
100
AcDbPolyline
90
50
70
1
43
0.0
10
-25.5
20
-2.2500000000000013
10
-36.499999999991999
20
-2.2500000000000013
10
-36.499999999991999
20
8.3266726846886741e-16
10
-43
20
-2.1600000000000181e-16
10
-43
20
5.75
10
-43.385479417761779
20
5.7499999999999325
42
-0.73111401013756649
10
-86.249999999999858
20
4.60490027112506
10
-86.249999999962995
20
2.5000578939519991
42
0.4142143127437603
10
-63.75000025063899
20
-19.999999999999996
10
-32.25
20
-20
10
-24.5
20
-12.25
10
-19.5
20
-12.250000000000004
10
-18
20
-10.750000000000002
10
-18
20
-7.2500000000000036
10
-20.25
20
-5.0000000000000009
10
-20.25
20
3.3306690738754696e-15
10
-14.875
20
-2.1600000000000144e-16
10
-14.382351256246002
20
-0.49264874374700174
42
0.19891187385448478
10
-10.139718625761006
20
-2.2500000000000027
10
-7.6250000000000009
20
-2.2500000000000013
10
-5.375
20
-1.1102230246251565e-15
10
-2.2204460492503131e-15
20
-1.2160000000000002e-15
10
-4.4408920985006262e-15
20
-4.0000000000000018
42
0.024984394500785503
10
1.5543122344752192e-14
20
-5.000000000000048
42
-0.11111111111111055
10
0
20
-14.000000000000007
10
-2.6494312993460003e-15
20
-27.519281835280005
10
0.36367563305300005
20
-28.038664465730001
10
2
20
-26.89289780903
10
2
20
-17
10
39
20
-17.000000000000004
10
39
20
-38.000000000000007
10
11.595388954680001
20
-38
10
8.7390929412039995
20
-40
10
50
20
-40
10
50
20
-27
10
40
20
-27
10
40
20
-17
10
50
20
-17.000000000000004
10
50
20
-13.000000000000004
10
49
20
-13.000000000000004
10
49
20
-15.000000000000002
10
19.584082900239999
20
-15.000000000000002
10
19.580517809330004
20
-14.986928000000004
10
12.000000000000002
20
-14.986928000000004
10
12.000000000000002
20
0.49999999999999822
42
0.41421356237309481
10
7.0000000000000009
20
5.4999999999999973
10
-14.460786437631064
20
5.4999999999999991
10
-14.460786437631066
20
4.0000000000000018
10
-17.460786437631064
20
0.99999999999999978
10
-22.25
20
0.99999999999999856
0
LWPOLYLINE
5
106
100
AcDbEntity
8
0
100
AcDbPolyline
90
32
70
1
43
0.0
10
42.526424715640005
20
-34.249999765909998
10
42.52642471515
20
-33.749999765909998
10
42.62660739321192
20
-33.749999765860885
42
-0.13075519361773791
10
42.998534675796392
20
-32.85208783237789
10
42.927694836930002
20
-32.781247993439997
10
43.281248227269998
20
-32.427694602599999
10
43.352088061422158
20
-32.498534436681986
42
-0.13075519574032379
10
44.249999999950049
20
-32.12660712643568
10
44.25
20
-32.026424479370007
10
44.750000000000007
20
-32.026424479370007
10
44.750000000114198
20
-32.126607126444249
42
-0.13075519573921546
10
45.647911938622798
20
-32.498534436716341
10
45.718751772719997
20
-32.427694602590002
10
46.072305163069998
20
-32.78124799343
10
46.00146532424202
20
-32.852087832428118
42
-0.13075519360053742
10
46.373392606779539
20
-33.749999765796829
10
46.473575284840003
20
-33.749999765909998
10
46.473575284350005
20
-34.249999765909998
10
46.373392596720571
20
-34.24999976596078
42
-0.13075519062131924
10
46.001465291504331
20
-35.147911666772671
10
46.072305161350002
20
-35.21875153669
10
45.718751770520001
20
-35.572304927029997
10
45.647911895812108
20
-35.501465052393606
42
-0.13075518849791615
10
44.750000000049958
20
-35.873392329944316
10
44.750000000000007
20
-35.973575048560001
10
44.25
20
-35.973575048560001
10
44.249999999950049
20
-35.873392329944316
42
-0.13075518849898607
10
43.352088104181576
20
-35.501465052388774
10
43.281248229460004
20
-35.572304927029997
10
42.927694838630003
20
-35.21875153669
10
42.998534708483469
20
-35.147911666756706
42
-0.1307551906187949
10
42.626607403279266
20
-34.249999765959473
0
LWPOLYLINE
5
107
100
AcDbEntity
8
0
100
AcDbPolyline
90
32
70
1
43
0.0
10
-76.973575284328007
20
-12.249999780470004
10
-76.973575284790996
20
-11.749999780470004
10
-76.873392605730785
20
-11.749999780409722
42
-0.13075519349812117
10
-76.501465322657722
20
-10.852087848469324
10
-76.572305162990006
20
-10.781248008070001
10
-76.218751772627996
20
-10.427694617240002
10
-76.147911936717392
20
-10.498534453087334
42
-0.13075519548789172
10
-75.250000000049496
20
-10.126607144079152
10
-75.25
20
-10.026424494070003
10
-74.75
20
-10.026424494070003
10
-74.749999999886271
20
-10.126607144087727
42
-0.13075519548682191
10
-73.852088063237431
20
-10.498534453121868
10
-73.781248227362994
20
-10.427694617230001
10
-73.427694837001994
20
-10.781248008060002
10
-73.498534677300071
20
-10.852087848524523
42
-0.13075519348080789
10
-73.126607394277045
20
-11.749999780351036
10
-73.026424715196015
20
-11.749999780470004
10
-73.026424715659005
20
-12.249999780470004
10
-73.126607403709315
20
-12.249999780510404
42
-0.13075519068662789
10
-73.498534707995546
20
-13.147911681805063
10
-73.427694838606996
20
-13.218751551260004
10
-73.781248229433004
20
-13.572304941630001
10
-73.852088103383153
20
-13.501465067750651
42
-0.13075518869665806
10
-74.749999999949196
20
-13.873392346100676
10
-74.75
20
-13.973575063190003
10
-75.25
20
-13.973575063190003
10
-75.250000000050804
20
-13.873392346100676
42
-0.13075518869736855
10
-76.147911896621054
20
-13.501465067747439
10
-76.218751770566996
20
-13.572304941630001
10
-76.572305161393999
20
-13.218751551260004
10
-76.501465292000745
20
-13.147911681809921
42
-0.13075519068734426
10
-76.873392596290572
20
-12.249999780511189
0
LWPOLYLINE
5
108
100
AcDbEntity
8
0
100
AcDbPolyline
90
32
70
1
43
0.0
10
-36.973575284318002
20
-12.249999781800003
10
-36.973575284779002
20
-11.749999781800003
10
-36.873392605480817
20
-11.749999781749718
42
-0.13075519348305262
10
-36.501465322404471
20
-10.852087850050287
10
-36.572305162977003
20
-10.781248009420004
10
-36.218751772612009
20
-10.427694618590003
10
-36.14791193643665
20
-10.498534454699623
42
-0.13075519545906064
10
-35.250000000049234
20
-10.126607145851068
10
-35.25
20
-10.026424495440002
10
-34.75
20
-10.026424495440002
10
-34.749999999886526
20
-10.126607145859641
42
-0.13075519545923578
10
-33.852088063510827
20
-10.498534454739779
10
-33.781248227376999
20
-10.427694618580004
10
-33.427694837011998
20
-10.781248009410003
10
-33.498534677552627
20
-10.852087850106402
42
-0.13075519346500128
10
-33.126607394527589
20
-11.749999781686737
10
-33.026424715208002
20
-11.749999781800003
10
-33.026424715669002
20
-12.249999781800003
10
-33.12660740390325
20
-12.249999781850411
42
-0.13075519068631986
10
-33.498534708058088
20
-13.147911683074645
10
-33.427694838610002
20
-13.218751552590003
10
-33.781248229433999
20
-13.572304942960002
10
-33.85208810341404
20
-13.501465069047338
42
-0.13075518871013997
10
-34.749999999949452
20
-13.873392347428762
10
-34.75
20
-13.973575064530001
10
-35.25
20
-13.973575064530001
10
-35.250000000050548
20
-13.873392347428762
42
-0.13075518871013997
10
-36.14791189658596
20
-13.501465069047336
10
-36.218751770566001
20
-13.572304942960002
10
-36.572305161391
20
-13.218751552590003
10
-36.501465291942651
20
-13.14791168307368
42
-0.13075519068617431
10
-36.873392596096771
20
-12.249999781850283
0
CIRCLE
5
109
100
AcDbEntity
8
0
100
AcDbCircle
10
8
20
2.1400000000000012e-16
30
0
40
1.6000000000000003
210
6.1629758220391835e-33
220
6.7792734042431031e-65
230
1
0
LWPOLYLINE
5
110
100
AcDbEntity
8
0
100
AcDbPolyline
90
4
70
1
43
0.0
10
23.963291000000005
20
35
10
23.963291000000005
20
41.000000000000007
10
22
20
41.000000000000007
10
22
20
35
0
LWPOLYLINE
5
111
100
AcDbEntity
8
0
100
AcDbPolyline
90
11
70
1
43
0.0
10
22
20
47.899999999999999
10
22
20
42
10
23.963291000000005
20
42
10
23.963291000000005
20
45.899999999999999
10
26.294650800679999
20
45.899999999999999
10
26.294650800679999
20
46.900000000000006
10
25.179957999999999
20
46.900000000000006
10
25.179957999999999
20
47.899999999999999
10
26.294650800679999
20
47.899999999999999
10
26.294650800679999
20
48.900000000000006
10
23.000000000000004
20
48.900000000000006
42
0.41421356237309503
0
LWPOLYLINE
5
112
100
AcDbEntity
8
0
100
AcDbPolyline
90
12
70
1
43
0.0
10
36.707106781180002
20
48.900000000000006
10
32.294650800680003
20
48.900000000000006
10
32.294650800680003
20
47.899999999999999
10
33.394650800679997
20
47.899999999999999
10
33.394650800679997
20
46.900000000000006
10
32.294650800680003
20
46.900000000000006
10
32.294650800680003
20
45.899999999999999
10
33.547908853030002
20
45.899999999999999
10
35.547908853030002
20
47.899999999999999
10
36.9056900649
20
47.899999999999999
10
36.932470064900002
20
47.873220000000003
10
37.733886781179997
20
47.873220000000003
0
ENDSEC
0
SECTION
2
OBJECTS
0
DICTIONARY
5
C
100
AcDbDictionary
3
ACAD_GROUP
350
D
3
ACAD_MLINESTYLE
350
17
0
DICTIONARY
5
D
100
AcDbDictionary
0
DICTIONARY
5
1A
330
C
100
AcDbDictionary
0
DICTIONARY
5
17
100
AcDbDictionary
0
ENDSEC
0
EOF
