ISO-10303-21;
HEADER;
/* Generated by software containing ST-Developer
 * from STEP Tools, Inc. (www.steptools.com) 
 */

FILE_DESCRIPTION(
/* description */ (''),
/* implementation_level */ '2;1');

FILE_NAME(
/* name */ '/Users/stephen/feeder/cad/rev06/right-angle-n20.step',
/* time_stamp */ '2022-07-08T14:54:03-04:00',
/* author */ (''),
/* organization */ (''),
/* preprocessor_version */ 'ST-DEVELOPER v19',
/* originating_system */ 'Autodesk Translation Framework v11.7.0.108',
/* authorisation */ '');

FILE_SCHEMA (('AUTOMOTIVE_DESIGN { 1 0 10303 214 3 1 1 }'));
ENDSEC;

DATA;
#10=MECHANICAL_DESIGN_GEOMETRIC_PRESENTATION_REPRESENTATION('',(#13),#444);
#11=SHAPE_REPRESENTATION_RELATIONSHIP('SRR','None',#451,#12);
#12=ADVANCED_BREP_SHAPE_REPRESENTATION('',(#14),#443);
#13=STYLED_ITEM('',(#461),#14);
#14=MANIFOLD_SOLID_BREP('Body1',#258);
#15=FACE_BOUND('',#53,.T.);
#16=PLANE('',#276);
#17=PLANE('',#277);
#18=PLANE('',#278);
#19=PLANE('',#279);
#20=PLANE('',#280);
#21=PLANE('',#285);
#22=PLANE('',#287);
#23=PLANE('',#288);
#24=PLANE('',#289);
#25=PLANE('',#290);
#26=PLANE('',#291);
#27=PLANE('',#292);
#28=PLANE('',#295);
#29=FACE_OUTER_BOUND('',#45,.T.);
#30=FACE_OUTER_BOUND('',#46,.T.);
#31=FACE_OUTER_BOUND('',#47,.T.);
#32=FACE_OUTER_BOUND('',#48,.T.);
#33=FACE_OUTER_BOUND('',#49,.T.);
#34=FACE_OUTER_BOUND('',#50,.T.);
#35=FACE_OUTER_BOUND('',#51,.T.);
#36=FACE_OUTER_BOUND('',#52,.T.);
#37=FACE_OUTER_BOUND('',#54,.T.);
#38=FACE_OUTER_BOUND('',#55,.T.);
#39=FACE_OUTER_BOUND('',#56,.T.);
#40=FACE_OUTER_BOUND('',#57,.T.);
#41=FACE_OUTER_BOUND('',#58,.T.);
#42=FACE_OUTER_BOUND('',#59,.T.);
#43=FACE_OUTER_BOUND('',#60,.T.);
#44=FACE_OUTER_BOUND('',#61,.T.);
#45=EDGE_LOOP('',(#173,#174,#175,#176,#177));
#46=EDGE_LOOP('',(#178,#179,#180,#181));
#47=EDGE_LOOP('',(#182,#183,#184,#185));
#48=EDGE_LOOP('',(#186,#187,#188));
#49=EDGE_LOOP('',(#189,#190,#191));
#50=EDGE_LOOP('',(#192,#193,#194,#195));
#51=EDGE_LOOP('',(#196,#197,#198,#199,#200));
#52=EDGE_LOOP('',(#201,#202,#203,#204,#205,#206));
#53=EDGE_LOOP('',(#207));
#54=EDGE_LOOP('',(#208,#209,#210,#211,#212,#213));
#55=EDGE_LOOP('',(#214,#215,#216,#217,#218));
#56=EDGE_LOOP('',(#219,#220,#221));
#57=EDGE_LOOP('',(#222,#223,#224));
#58=EDGE_LOOP('',(#225,#226,#227,#228));
#59=EDGE_LOOP('',(#229,#230,#231,#232,#233));
#60=EDGE_LOOP('',(#234,#235,#236,#237));
#61=EDGE_LOOP('',(#238));
#62=CIRCLE('',#273,6.);
#63=CIRCLE('',#274,6.);
#64=CIRCLE('',#275,6.);
#65=CIRCLE('',#281,6.);
#66=CIRCLE('',#283,6.);
#67=CIRCLE('',#284,6.);
#68=CIRCLE('',#286,1.5);
#69=CIRCLE('',#294,1.5);
#70=LINE('',#375,#95);
#71=LINE('',#381,#96);
#72=LINE('',#385,#97);
#73=LINE('',#387,#98);
#74=LINE('',#388,#99);
#75=LINE('',#391,#100);
#76=LINE('',#393,#101);
#77=LINE('',#394,#102);
#78=LINE('',#397,#103);
#79=LINE('',#398,#104);
#80=LINE('',#401,#105);
#81=LINE('',#402,#106);
#82=LINE('',#411,#107);
#83=LINE('',#413,#108);
#84=LINE('',#415,#109);
#85=LINE('',#416,#110);
#86=LINE('',#422,#111);
#87=LINE('',#423,#112);
#88=LINE('',#425,#113);
#89=LINE('',#426,#114);
#90=LINE('',#428,#115);
#91=LINE('',#430,#116);
#92=LINE('',#432,#117);
#93=LINE('',#434,#118);
#94=LINE('',#438,#119);
#95=VECTOR('',#300,1.);
#96=VECTOR('',#305,1.);
#97=VECTOR('',#310,1.);
#98=VECTOR('',#311,1.);
#99=VECTOR('',#312,1.);
#100=VECTOR('',#315,1.);
#101=VECTOR('',#316,1.);
#102=VECTOR('',#317,1.);
#103=VECTOR('',#320,1.);
#104=VECTOR('',#321,1.);
#105=VECTOR('',#324,1.);
#106=VECTOR('',#325,1.);
#107=VECTOR('',#338,1.);
#108=VECTOR('',#339,1.);
#109=VECTOR('',#340,1.);
#110=VECTOR('',#341,1.);
#111=VECTOR('',#346,1.);
#112=VECTOR('',#347,1.);
#113=VECTOR('',#348,1.);
#114=VECTOR('',#349,1.);
#115=VECTOR('',#352,1.);
#116=VECTOR('',#355,1.);
#117=VECTOR('',#358,1.);
#118=VECTOR('',#361,1.);
#119=VECTOR('',#366,1.5);
#120=VERTEX_POINT('',#373);
#121=VERTEX_POINT('',#374);
#122=VERTEX_POINT('',#376);
#123=VERTEX_POINT('',#378);
#124=VERTEX_POINT('',#380);
#125=VERTEX_POINT('',#384);
#126=VERTEX_POINT('',#386);
#127=VERTEX_POINT('',#390);
#128=VERTEX_POINT('',#392);
#129=VERTEX_POINT('',#396);
#130=VERTEX_POINT('',#400);
#131=VERTEX_POINT('',#406);
#132=VERTEX_POINT('',#410);
#133=VERTEX_POINT('',#412);
#134=VERTEX_POINT('',#414);
#135=VERTEX_POINT('',#417);
#136=VERTEX_POINT('',#420);
#137=VERTEX_POINT('',#421);
#138=VERTEX_POINT('',#424);
#139=VERTEX_POINT('',#437);
#140=EDGE_CURVE('',#120,#121,#70,.T.);
#141=EDGE_CURVE('',#120,#122,#62,.T.);
#142=EDGE_CURVE('',#122,#123,#63,.T.);
#143=EDGE_CURVE('',#123,#124,#71,.T.);
#144=EDGE_CURVE('',#121,#124,#64,.T.);
#145=EDGE_CURVE('',#121,#125,#72,.T.);
#146=EDGE_CURVE('',#126,#125,#73,.T.);
#147=EDGE_CURVE('',#120,#126,#74,.T.);
#148=EDGE_CURVE('',#123,#127,#75,.T.);
#149=EDGE_CURVE('',#127,#128,#76,.T.);
#150=EDGE_CURVE('',#124,#128,#77,.T.);
#151=EDGE_CURVE('',#122,#129,#78,.T.);
#152=EDGE_CURVE('',#129,#120,#79,.T.);
#153=EDGE_CURVE('',#130,#122,#80,.T.);
#154=EDGE_CURVE('',#123,#130,#81,.T.);
#155=EDGE_CURVE('',#128,#125,#65,.T.);
#156=EDGE_CURVE('',#127,#131,#66,.T.);
#157=EDGE_CURVE('',#131,#126,#67,.T.);
#158=EDGE_CURVE('',#129,#132,#82,.T.);
#159=EDGE_CURVE('',#126,#133,#83,.T.);
#160=EDGE_CURVE('',#133,#134,#84,.T.);
#161=EDGE_CURVE('',#132,#134,#85,.T.);
#162=EDGE_CURVE('',#135,#135,#68,.T.);
#163=EDGE_CURVE('',#136,#137,#86,.T.);
#164=EDGE_CURVE('',#136,#127,#87,.T.);
#165=EDGE_CURVE('',#130,#138,#88,.T.);
#166=EDGE_CURVE('',#137,#138,#89,.T.);
#167=EDGE_CURVE('',#138,#132,#90,.T.);
#168=EDGE_CURVE('',#131,#136,#91,.T.);
#169=EDGE_CURVE('',#133,#131,#92,.T.);
#170=EDGE_CURVE('',#134,#137,#93,.T.);
#171=EDGE_CURVE('',#135,#139,#94,.T.);
#172=EDGE_CURVE('',#139,#139,#69,.T.);
#173=ORIENTED_EDGE('',*,*,#140,.F.);
#174=ORIENTED_EDGE('',*,*,#141,.T.);
#175=ORIENTED_EDGE('',*,*,#142,.T.);
#176=ORIENTED_EDGE('',*,*,#143,.T.);
#177=ORIENTED_EDGE('',*,*,#144,.F.);
#178=ORIENTED_EDGE('',*,*,#140,.T.);
#179=ORIENTED_EDGE('',*,*,#145,.T.);
#180=ORIENTED_EDGE('',*,*,#146,.F.);
#181=ORIENTED_EDGE('',*,*,#147,.F.);
#182=ORIENTED_EDGE('',*,*,#143,.F.);
#183=ORIENTED_EDGE('',*,*,#148,.T.);
#184=ORIENTED_EDGE('',*,*,#149,.T.);
#185=ORIENTED_EDGE('',*,*,#150,.F.);
#186=ORIENTED_EDGE('',*,*,#151,.F.);
#187=ORIENTED_EDGE('',*,*,#141,.F.);
#188=ORIENTED_EDGE('',*,*,#152,.F.);
#189=ORIENTED_EDGE('',*,*,#153,.F.);
#190=ORIENTED_EDGE('',*,*,#154,.F.);
#191=ORIENTED_EDGE('',*,*,#142,.F.);
#192=ORIENTED_EDGE('',*,*,#144,.T.);
#193=ORIENTED_EDGE('',*,*,#150,.T.);
#194=ORIENTED_EDGE('',*,*,#155,.T.);
#195=ORIENTED_EDGE('',*,*,#145,.F.);
#196=ORIENTED_EDGE('',*,*,#149,.F.);
#197=ORIENTED_EDGE('',*,*,#156,.T.);
#198=ORIENTED_EDGE('',*,*,#157,.T.);
#199=ORIENTED_EDGE('',*,*,#146,.T.);
#200=ORIENTED_EDGE('',*,*,#155,.F.);
#201=ORIENTED_EDGE('',*,*,#158,.F.);
#202=ORIENTED_EDGE('',*,*,#152,.T.);
#203=ORIENTED_EDGE('',*,*,#147,.T.);
#204=ORIENTED_EDGE('',*,*,#159,.T.);
#205=ORIENTED_EDGE('',*,*,#160,.T.);
#206=ORIENTED_EDGE('',*,*,#161,.F.);
#207=ORIENTED_EDGE('',*,*,#162,.T.);
#208=ORIENTED_EDGE('',*,*,#163,.F.);
#209=ORIENTED_EDGE('',*,*,#164,.T.);
#210=ORIENTED_EDGE('',*,*,#148,.F.);
#211=ORIENTED_EDGE('',*,*,#154,.T.);
#212=ORIENTED_EDGE('',*,*,#165,.T.);
#213=ORIENTED_EDGE('',*,*,#166,.F.);
#214=ORIENTED_EDGE('',*,*,#165,.F.);
#215=ORIENTED_EDGE('',*,*,#153,.T.);
#216=ORIENTED_EDGE('',*,*,#151,.T.);
#217=ORIENTED_EDGE('',*,*,#158,.T.);
#218=ORIENTED_EDGE('',*,*,#167,.F.);
#219=ORIENTED_EDGE('',*,*,#156,.F.);
#220=ORIENTED_EDGE('',*,*,#164,.F.);
#221=ORIENTED_EDGE('',*,*,#168,.F.);
#222=ORIENTED_EDGE('',*,*,#157,.F.);
#223=ORIENTED_EDGE('',*,*,#169,.F.);
#224=ORIENTED_EDGE('',*,*,#159,.F.);
#225=ORIENTED_EDGE('',*,*,#161,.T.);
#226=ORIENTED_EDGE('',*,*,#170,.T.);
#227=ORIENTED_EDGE('',*,*,#166,.T.);
#228=ORIENTED_EDGE('',*,*,#167,.T.);
#229=ORIENTED_EDGE('',*,*,#160,.F.);
#230=ORIENTED_EDGE('',*,*,#169,.T.);
#231=ORIENTED_EDGE('',*,*,#168,.T.);
#232=ORIENTED_EDGE('',*,*,#163,.T.);
#233=ORIENTED_EDGE('',*,*,#170,.F.);
#234=ORIENTED_EDGE('',*,*,#162,.F.);
#235=ORIENTED_EDGE('',*,*,#171,.T.);
#236=ORIENTED_EDGE('',*,*,#172,.F.);
#237=ORIENTED_EDGE('',*,*,#171,.F.);
#238=ORIENTED_EDGE('',*,*,#172,.T.);
#239=CYLINDRICAL_SURFACE('',#272,6.);
#240=CYLINDRICAL_SURFACE('',#282,6.);
#241=CYLINDRICAL_SURFACE('',#293,1.5);
#242=ADVANCED_FACE('',(#29),#239,.T.);
#243=ADVANCED_FACE('',(#30),#16,.T.);
#244=ADVANCED_FACE('',(#31),#17,.F.);
#245=ADVANCED_FACE('',(#32),#18,.F.);
#246=ADVANCED_FACE('',(#33),#19,.F.);
#247=ADVANCED_FACE('',(#34),#20,.F.);
#248=ADVANCED_FACE('',(#35),#240,.T.);
#249=ADVANCED_FACE('',(#36,#15),#21,.F.);
#250=ADVANCED_FACE('',(#37),#22,.F.);
#251=ADVANCED_FACE('',(#38),#23,.F.);
#252=ADVANCED_FACE('',(#39),#24,.F.);
#253=ADVANCED_FACE('',(#40),#25,.F.);
#254=ADVANCED_FACE('',(#41),#26,.T.);
#255=ADVANCED_FACE('',(#42),#27,.F.);
#256=ADVANCED_FACE('',(#43),#241,.T.);
#257=ADVANCED_FACE('',(#44),#28,.T.);
#258=CLOSED_SHELL('',(#242,#243,#244,#245,#246,#247,#248,#249,#250,#251,
#252,#253,#254,#255,#256,#257));
#259=DERIVED_UNIT_ELEMENT(#261,1.);
#260=DERIVED_UNIT_ELEMENT(#446,-3.);
#261=(
MASS_UNIT()
NAMED_UNIT(*)
SI_UNIT(.KILO.,.GRAM.)
);
#262=DERIVED_UNIT((#259,#260));
#263=MEASURE_REPRESENTATION_ITEM('density measure',
POSITIVE_RATIO_MEASURE(7850.),#262);
#264=PROPERTY_DEFINITION_REPRESENTATION(#269,#266);
#265=PROPERTY_DEFINITION_REPRESENTATION(#270,#267);
#266=REPRESENTATION('material name',(#268),#443);
#267=REPRESENTATION('density',(#263),#443);
#268=DESCRIPTIVE_REPRESENTATION_ITEM('Steel','Steel');
#269=PROPERTY_DEFINITION('material property','material name',#453);
#270=PROPERTY_DEFINITION('material property','density of part',#453);
#271=AXIS2_PLACEMENT_3D('placement',#371,#296,#297);
#272=AXIS2_PLACEMENT_3D('',#372,#298,#299);
#273=AXIS2_PLACEMENT_3D('',#377,#301,#302);
#274=AXIS2_PLACEMENT_3D('',#379,#303,#304);
#275=AXIS2_PLACEMENT_3D('',#382,#306,#307);
#276=AXIS2_PLACEMENT_3D('',#383,#308,#309);
#277=AXIS2_PLACEMENT_3D('',#389,#313,#314);
#278=AXIS2_PLACEMENT_3D('',#395,#318,#319);
#279=AXIS2_PLACEMENT_3D('',#399,#322,#323);
#280=AXIS2_PLACEMENT_3D('',#403,#326,#327);
#281=AXIS2_PLACEMENT_3D('',#404,#328,#329);
#282=AXIS2_PLACEMENT_3D('',#405,#330,#331);
#283=AXIS2_PLACEMENT_3D('',#407,#332,#333);
#284=AXIS2_PLACEMENT_3D('',#408,#334,#335);
#285=AXIS2_PLACEMENT_3D('',#409,#336,#337);
#286=AXIS2_PLACEMENT_3D('',#418,#342,#343);
#287=AXIS2_PLACEMENT_3D('',#419,#344,#345);
#288=AXIS2_PLACEMENT_3D('',#427,#350,#351);
#289=AXIS2_PLACEMENT_3D('',#429,#353,#354);
#290=AXIS2_PLACEMENT_3D('',#431,#356,#357);
#291=AXIS2_PLACEMENT_3D('',#433,#359,#360);
#292=AXIS2_PLACEMENT_3D('',#435,#362,#363);
#293=AXIS2_PLACEMENT_3D('',#436,#364,#365);
#294=AXIS2_PLACEMENT_3D('',#439,#367,#368);
#295=AXIS2_PLACEMENT_3D('',#440,#369,#370);
#296=DIRECTION('axis',(0.,0.,1.));
#297=DIRECTION('refdir',(1.,0.,0.));
#298=DIRECTION('center_axis',(0.,1.,-6.7E-16));
#299=DIRECTION('ref_axis',(-1.,4.64982555490714E-29,6.94003814165245E-14));
#300=DIRECTION('',(0.,-1.,6.7E-16));
#301=DIRECTION('center_axis',(0.,-1.,2.2E-16));
#302=DIRECTION('ref_axis',(1.,0.,0.));
#303=DIRECTION('center_axis',(0.,-1.,2.2E-16));
#304=DIRECTION('ref_axis',(1.,0.,0.));
#305=DIRECTION('',(0.,-1.,6.7E-16));
#306=DIRECTION('center_axis',(0.,-1.,2.2E-16));
#307=DIRECTION('ref_axis',(1.,0.,0.));
#308=DIRECTION('center_axis',(0.,6.7E-16,1.));
#309=DIRECTION('ref_axis',(1.,0.,0.));
#310=DIRECTION('',(1.,0.,0.));
#311=DIRECTION('',(0.,-1.,6.7E-16));
#312=DIRECTION('',(1.,0.,0.));
#313=DIRECTION('center_axis',(0.,6.7E-16,1.));
#314=DIRECTION('ref_axis',(1.,0.,0.));
#315=DIRECTION('',(1.,0.,0.));
#316=DIRECTION('',(0.,-1.,6.7E-16));
#317=DIRECTION('',(1.,0.,0.));
#318=DIRECTION('center_axis',(0.,1.,-4.4E-16));
#319=DIRECTION('ref_axis',(0.,4.4E-16,1.));
#320=DIRECTION('',(0.,2.2E-16,1.));
#321=DIRECTION('',(1.,0.,0.));
#322=DIRECTION('center_axis',(0.,1.,-4.4E-16));
#323=DIRECTION('ref_axis',(0.,4.4E-16,1.));
#324=DIRECTION('',(0.,2.2E-16,1.));
#325=DIRECTION('',(-1.,0.,0.));
#326=DIRECTION('center_axis',(0.,1.,-4.4E-16));
#327=DIRECTION('ref_axis',(0.,4.4E-16,1.));
#328=DIRECTION('center_axis',(0.,-1.,2.2E-16));
#329=DIRECTION('ref_axis',(1.,0.,0.));
#330=DIRECTION('center_axis',(0.,1.,-6.7E-16));
#331=DIRECTION('ref_axis',(1.,0.,0.));
#332=DIRECTION('center_axis',(0.,-1.,2.2E-16));
#333=DIRECTION('ref_axis',(1.,0.,0.));
#334=DIRECTION('center_axis',(0.,-1.,2.2E-16));
#335=DIRECTION('ref_axis',(1.,0.,0.));
#336=DIRECTION('center_axis',(0.,-6.7E-16,-1.));
#337=DIRECTION('ref_axis',(1.,0.,0.));
#338=DIRECTION('',(0.,1.,-6.7E-16));
#339=DIRECTION('',(1.,0.,0.));
#340=DIRECTION('',(0.,1.,-6.7E-16));
#341=DIRECTION('',(1.,0.,0.));
#342=DIRECTION('center_axis',(0.,-4.4E-16,-1.));
#343=DIRECTION('ref_axis',(1.,0.,0.));
#344=DIRECTION('center_axis',(0.,6.7E-16,1.));
#345=DIRECTION('ref_axis',(-1.,0.,0.));
#346=DIRECTION('',(0.,1.,-6.7E-16));
#347=DIRECTION('',(-1.,0.,0.));
#348=DIRECTION('',(0.,1.,-6.7E-16));
#349=DIRECTION('',(-1.,0.,0.));
#350=DIRECTION('center_axis',(1.,0.,0.));
#351=DIRECTION('ref_axis',(0.,6.7E-16,1.));
#352=DIRECTION('',(0.,2.2E-16,1.));
#353=DIRECTION('center_axis',(0.,1.,-4.4E-16));
#354=DIRECTION('ref_axis',(0.,4.4E-16,1.));
#355=DIRECTION('',(0.,-2.2E-16,-1.));
#356=DIRECTION('center_axis',(0.,1.,-4.4E-16));
#357=DIRECTION('ref_axis',(0.,4.4E-16,1.));
#358=DIRECTION('',(0.,-2.2E-16,-1.));
#359=DIRECTION('center_axis',(0.,1.,-4.4E-16));
#360=DIRECTION('ref_axis',(0.,4.4E-16,1.));
#361=DIRECTION('',(0.,-2.2E-16,-1.));
#362=DIRECTION('center_axis',(-1.,0.,0.));
#363=DIRECTION('ref_axis',(0.,-6.7E-16,-1.));
#364=DIRECTION('center_axis',(0.,-4.4E-16,-1.));
#365=DIRECTION('ref_axis',(1.,0.,0.));
#366=DIRECTION('',(0.,4.4E-16,1.));
#367=DIRECTION('center_axis',(0.,2.2E-16,1.));
#368=DIRECTION('ref_axis',(1.,0.,0.));
#369=DIRECTION('center_axis',(0.,2.2E-16,1.));
#370=DIRECTION('ref_axis',(1.,0.,0.));
#371=CARTESIAN_POINT('',(0.,0.,0.));
#372=CARTESIAN_POINT('Origin',(0.,0.,0.));
#373=CARTESIAN_POINT('',(-3.316624790355,9.E-15,5.));
#374=CARTESIAN_POINT('',(-3.316624790355,-17.,5.));
#375=CARTESIAN_POINT('',(-3.316624790355,3.33E-15,5.));
#376=CARTESIAN_POINT('',(-6.,0.,-1.254291E-8));
#377=CARTESIAN_POINT('Origin',(0.,0.,0.));
#378=CARTESIAN_POINT('',(-3.316624790356,-9.E-15,-5.));
#379=CARTESIAN_POINT('Origin',(0.,0.,0.));
#380=CARTESIAN_POINT('',(-3.316624790356,-17.,-5.));
#381=CARTESIAN_POINT('',(-3.316624790356,-3.33E-15,-5.));
#382=CARTESIAN_POINT('Origin',(0.,-17.,3.552713678801E-15));
#383=CARTESIAN_POINT('Origin',(-3.316624790355,3.33E-15,5.));
#384=CARTESIAN_POINT('',(3.316624790355,-17.,5.));
#385=CARTESIAN_POINT('',(-3.316624790355,-17.,5.));
#386=CARTESIAN_POINT('',(3.316624790355,9.E-15,5.));
#387=CARTESIAN_POINT('',(3.316624790355,3.33E-15,5.));
#388=CARTESIAN_POINT('',(-3.316624790355,1.11E-15,5.));
#389=CARTESIAN_POINT('Origin',(-3.316624790356,-3.33E-15,-5.));
#390=CARTESIAN_POINT('',(3.316624790356,-9.E-15,-5.));
#391=CARTESIAN_POINT('',(-3.316624790356,-1.11E-15,-5.));
#392=CARTESIAN_POINT('',(3.316624790356,-17.,-5.));
#393=CARTESIAN_POINT('',(3.316624790356,-3.33E-15,-5.));
#394=CARTESIAN_POINT('',(-3.316624790356,-17.,-5.));
#395=CARTESIAN_POINT('Origin',(0.,0.,0.));
#396=CARTESIAN_POINT('',(-6.,7.E-15,5.));
#397=CARTESIAN_POINT('',(-6.,-1.11E-15,-5.));
#398=CARTESIAN_POINT('',(-6.,1.11E-15,5.));
#399=CARTESIAN_POINT('Origin',(0.,0.,0.));
#400=CARTESIAN_POINT('',(-6.,-7.E-15,-5.));
#401=CARTESIAN_POINT('',(-6.,-1.11E-15,-5.));
#402=CARTESIAN_POINT('',(6.,-1.11E-15,-5.));
#403=CARTESIAN_POINT('Origin',(-7.64E-15,-17.,3.19744231092E-14));
#404=CARTESIAN_POINT('Origin',(0.,-17.,3.552713678801E-15));
#405=CARTESIAN_POINT('Origin',(0.,0.,0.));
#406=CARTESIAN_POINT('',(6.,0.,4.E-15));
#407=CARTESIAN_POINT('Origin',(0.,0.,0.));
#408=CARTESIAN_POINT('Origin',(0.,0.,0.));
#409=CARTESIAN_POINT('Origin',(-6.,3.33E-15,5.));
#410=CARTESIAN_POINT('',(-6.,18.,5.));
#411=CARTESIAN_POINT('',(-6.,3.33E-15,5.));
#412=CARTESIAN_POINT('',(6.,7.E-15,5.));
#413=CARTESIAN_POINT('',(-6.,1.11E-15,5.));
#414=CARTESIAN_POINT('',(6.,18.,5.));
#415=CARTESIAN_POINT('',(6.,3.33E-15,5.));
#416=CARTESIAN_POINT('',(-6.,18.,5.));
#417=CARTESIAN_POINT('',(-1.5,14.,5.));
#418=CARTESIAN_POINT('Origin',(0.,14.,5.));
#419=CARTESIAN_POINT('Origin',(6.,-3.33E-15,-5.));
#420=CARTESIAN_POINT('',(6.,-7.E-15,-5.));
#421=CARTESIAN_POINT('',(6.,18.,-5.));
#422=CARTESIAN_POINT('',(6.,-3.33E-15,-5.));
#423=CARTESIAN_POINT('',(6.,-1.11E-15,-5.));
#424=CARTESIAN_POINT('',(-6.,18.,-5.));
#425=CARTESIAN_POINT('',(-6.,-3.33E-15,-5.));
#426=CARTESIAN_POINT('',(6.,18.,-5.));
#427=CARTESIAN_POINT('Origin',(-6.,-3.33E-15,-5.));
#428=CARTESIAN_POINT('',(-6.,18.,-5.));
#429=CARTESIAN_POINT('Origin',(0.,0.,0.));
#430=CARTESIAN_POINT('',(6.,1.11E-15,5.));
#431=CARTESIAN_POINT('Origin',(0.,0.,0.));
#432=CARTESIAN_POINT('',(6.,1.11E-15,5.));
#433=CARTESIAN_POINT('Origin',(0.,18.,-7.105427357601E-15));
#434=CARTESIAN_POINT('',(6.,18.,5.));
#435=CARTESIAN_POINT('Origin',(6.,3.33E-15,5.));
#436=CARTESIAN_POINT('Origin',(0.,14.,-6.22E-15));
#437=CARTESIAN_POINT('',(-1.5,14.,13.));
#438=CARTESIAN_POINT('',(-1.5,14.,-6.22E-15));
#439=CARTESIAN_POINT('Origin',(0.,14.,13.));
#440=CARTESIAN_POINT('Origin',(-1.1E-16,14.,13.));
#441=UNCERTAINTY_MEASURE_WITH_UNIT(LENGTH_MEASURE(0.01),#445,
'DISTANCE_ACCURACY_VALUE',
'Maximum model space distance between geometric entities at asserted c
onnectivities');
#442=UNCERTAINTY_MEASURE_WITH_UNIT(LENGTH_MEASURE(0.01),#445,
'DISTANCE_ACCURACY_VALUE',
'Maximum model space distance between geometric entities at asserted c
onnectivities');
#443=(
GEOMETRIC_REPRESENTATION_CONTEXT(3)
GLOBAL_UNCERTAINTY_ASSIGNED_CONTEXT((#441))
GLOBAL_UNIT_ASSIGNED_CONTEXT((#445,#447,#448))
REPRESENTATION_CONTEXT('','3D')
);
#444=(
GEOMETRIC_REPRESENTATION_CONTEXT(3)
GLOBAL_UNCERTAINTY_ASSIGNED_CONTEXT((#442))
GLOBAL_UNIT_ASSIGNED_CONTEXT((#445,#447,#448))
REPRESENTATION_CONTEXT('','3D')
);
#445=(
LENGTH_UNIT()
NAMED_UNIT(*)
SI_UNIT(.MILLI.,.METRE.)
);
#446=(
LENGTH_UNIT()
NAMED_UNIT(*)
SI_UNIT($,.METRE.)
);
#447=(
NAMED_UNIT(*)
PLANE_ANGLE_UNIT()
SI_UNIT($,.RADIAN.)
);
#448=(
NAMED_UNIT(*)
SI_UNIT($,.STERADIAN.)
SOLID_ANGLE_UNIT()
);
#449=SHAPE_DEFINITION_REPRESENTATION(#450,#451);
#450=PRODUCT_DEFINITION_SHAPE('',$,#453);
#451=SHAPE_REPRESENTATION('',(#271),#443);
#452=PRODUCT_DEFINITION_CONTEXT('part definition',#457,'design');
#453=PRODUCT_DEFINITION('right-angle-n20-Body',
'right-angle-n20-Body v1',#454,#452);
#454=PRODUCT_DEFINITION_FORMATION('',$,#459);
#455=PRODUCT_RELATED_PRODUCT_CATEGORY('right-angle-n20-Body v1',
'right-angle-n20-Body v1',(#459));
#456=APPLICATION_PROTOCOL_DEFINITION('international standard',
'automotive_design',2009,#457);
#457=APPLICATION_CONTEXT(
'Core Data for Automotive Mechanical Design Process');
#458=PRODUCT_CONTEXT('part definition',#457,'mechanical');
#459=PRODUCT('right-angle-n20-Body','right-angle-n20-Body v1',$,(#458));
#460=PRESENTATION_STYLE_ASSIGNMENT((#462));
#461=PRESENTATION_STYLE_ASSIGNMENT((#463));
#462=SURFACE_STYLE_USAGE(.BOTH.,#464);
#463=SURFACE_STYLE_USAGE(.BOTH.,#465);
#464=SURFACE_SIDE_STYLE('',(#466));
#465=SURFACE_SIDE_STYLE('',(#467));
#466=SURFACE_STYLE_FILL_AREA(#468);
#467=SURFACE_STYLE_FILL_AREA(#469);
#468=FILL_AREA_STYLE('Steel - Satin',(#470));
#469=FILL_AREA_STYLE('Opaque(204,204,204)',(#471));
#470=FILL_AREA_STYLE_COLOUR('Steel - Satin',#472);
#471=FILL_AREA_STYLE_COLOUR('Opaque(204,204,204)',#473);
#472=COLOUR_RGB('Steel - Satin',0.627450980392157,0.627450980392157,0.627450980392157);
#473=COLOUR_RGB('Opaque(204,204,204)',0.8,0.8,0.8);
ENDSEC;
END-ISO-10303-21;
