  0
SECTION
  2
HEADER
  9
$ANGBASE
  50
0.0
  9
$ANGDIR
  70
1
  9
$MEASUREMENT
  70
1
  0
ENDSEC
  0
SECTION
  2
TABLES
  0
TABLE
  2
LTYPE
  70
4
  0
LTYPE
  5
40F
  2
CONTINUOUS
  70
0
  3
Solid line
  72
65
  73
0
  40
0.0
  0
LTYPE
  5
410
  2
DASHDOT
 70
0
  3
Dash Dot ____ _ ____ _
 72
65
 73
4
 40
2.0
 49
1.25
 49
-0.25
 49
0.25
 49
-0.25
  0
LTYPE
  5
411
  2
DASHED
 70
0
  3
Dashed __ __ __ __ __
 72
65
 73
2
 40
0.75
 49
0.5
 49
-0.25
  0
LTYPE
  5
43B
  2
DOTTED
 70
0
  3
Dotted .  .  .  .
 72
65
 73
2
 40
0.2
 49
0.0
 49
-0.2
  0
ENDTAB
  0
TABLE
  2
STYLE
  70
4
  0
STYLE
  2
KICAD
  70
0
  40
0
  41
1
  42
1
  50
0
  71
0
  3
isocp.shx
  0
STYLE
  2
KICADB
  70
0
  40
0
  41
1
  42
1
  50
0
  71
0
  3
isocp.shx
  0
STYLE
  2
KICADI
  70
0
  40
0
  41
1
  42
1
  50
15
  71
0
  3
isocp.shx
  0
STYLE
  2
KICADBI
  70
0
  40
0
  41
1
  42
1
  50
15
  71
0
  3
isocp.shx
  0
ENDTAB
  0
TABLE
  2
LAYER
  70
1
  0
LAYER
  2
BLACK
  70
0
  62
7
  6
CONTINUOUS
  0
ENDTAB
  0
ENDSEC
  0
SECTION
  2
ENTITIES
0
LINE
8
BLACK
6
CONTINUOUS
10
219.2245509999999911
20
-37.0334679999999992
11
219.2500619999999856
21
-108.9006239999999934
0
LINE
8
BLACK
6
CONTINUOUS
10
219.2500619999999856
20
-108.9006239999999934
11
133.100087000000002
21
-108.875624000000002
0
LINE
8
BLACK
6
CONTINUOUS
10
133.100087000000002
20
-108.875624000000002
11
133.0750740000000008
21
-58.3999999999999986
0
LINE
8
BLACK
6
CONTINUOUS
10
133.0750740000000008
20
-58.3999999999999986
11
139.6749999999999829
21
-58.3999999999999986
0
LINE
8
BLACK
6
CONTINUOUS
10
139.6749999999999829
20
-58.3999999999999986
11
139.6749999999999829
21
-57.7999999999999972
0
LINE
8
BLACK
6
CONTINUOUS
10
139.6749999999999829
20
-57.7999999999999972
11
139.25
21
-57.7999999999999972
0
LINE
8
BLACK
6
CONTINUOUS
10
139.25
20
-57.7999999999999972
11
139.25
21
-49.75
0
LINE
8
BLACK
6
CONTINUOUS
10
139.25
20
-49.75
11
139.6999999999999886
21
-49.75
0
LINE
8
BLACK
6
CONTINUOUS
10
139.6999999999999886
20
-49.75
11
139.6999999999999886
21
-49.1499999999999986
0
LINE
8
BLACK
6
CONTINUOUS
10
139.6999999999999886
20
-49.1499999999999986
11
133.0749999999999886
21
-49.1499999999999986
0
LINE
8
BLACK
6
CONTINUOUS
10
133.0749999999999886
20
-49.1499999999999986
11
133.0749999999999886
21
-37.0084680000000006
0
LINE
8
BLACK
6
CONTINUOUS
10
133.0749999999999886
20
-37.0084680000000006
11
219.2245509999999911
21
-37.0334679999999992
  0
ENDSEC
  0
EOF
